Collective Soul - Forgiveness - аккорды на укулеле

СТРАНИЦА ПЕСНИ

АЛФАВИТ
Х
			
			 
SONG:FORGIVENESS
ARTIST:COLLECTIVE SOUL
ALBUM:DISCIPLINED BREAKDOWN
BASS TAB
TRANSCRIBED BY D.PARKER

EASY SONG !!!

NORMAL TUNING  E,A,D,G

VERSE

G|--------------------------------
D|--------------------------------
A|7--7-7--------------------------
E|-------7--7-7--8--8-8--3--3-3---

PRE CHORUS

G|----------------------------------------------------------------------
D|----------------------------------------------------------------------
A|5-5-5-5-5-5-5-5-5-5-5-5-5-5-5-5-------------------3-3-3-3-3-3-3-3-----
E|-----------------------------------0-0-0-0-0-0-0-0--------------------

CHORUS

G|--------------------------------------------------------------------
D|--------------------------------------------------------------------
A|----------------------------------3-3-3-3-3-3-3-3-------------------
E|3-3-3-3-3-3-3-3-0-0-0-0-0-0-0-0------------------3-3-3-3-3-3-X-X----

Какой бой?
Помогите начинающим выбрать бой для этой песни
Выберите бой и нажмите кнопку Голосовать
Проголосовали 0 человека

ЕЩЕ ПЕСНИ

UKULA.RU
Песни Новое Избранное Аккорды Настроить