Collective Soul - Heavy - аккорды на укулеле

СТРАНИЦА ПЕСНИ

АЛФАВИТ
Х
			
			 
BTAB: Heavy 
Artist: Collective Soul 
Album: Dosage 
Tabbed by: Geoffrey Aaron supergman33@hotmail.com/http://come.to/olp 
Intro 
G------------------------------------- 
D------------------------------------- 
A------------------------------------- 
E-0-0-0-0-0-0-0-0-0-0-0-0-0-0-0-0-0-0- 

Verse repeat this part, this part is also the fill 
G------------------------------------------ 
D------------------------------------------ 
A------------------------------------------ 
E-0-0-0-0-0-0-0-0h1h2-0-0-0-0-0-0-0-0h1h2h3 

Play this part while he his signing 
G------------------------------------- 
D------------------------------------- 
A------------------------------------- 
E-2-2-2-2-2-2-2-2-2-2-2-2-2-2-2-2-2-2- 

Chorus 
G------------------------------------- 
D------------------------------------- 
A------------------------------------- 
E-4-4-4-4-4-4-4-4-0-0-0-0-0-0-0-0-0-0- 

G-------------------------------- 
D-------------------------------- 
A-------------------------------- 
E-2-2-2-2-2-2-2-2-3-3-3-3-2-2-2-2 

Bridge part1 This part is played when the 
rythm guitar has a solo in the back 
G----------------------------- 
D----------------------------- 
A----------------------------- 
E-0-0-0-0-0-0-0-0-0-0-0-0-2222 

Part2 
G------------------------------------- 
D------------------------------------- 
A------------------------------------- 
E-2-2-2-2-2-2-2-2-2-2-2-2-2-2-2-2-2-2- 

Какой бой?
Помогите начинающим выбрать бой для этой песни
Выберите бой и нажмите кнопку Голосовать
Проголосовали 0 человека

ЕЩЕ ПЕСНИ

UKULA.RU
Песни Новое Избранное Аккорды Настроить