Collective Soul - Listen - аккорды на укулеле

СТРАНИЦА ПЕСНИ

АЛФАВИТ
Х
			
			 
Artist: Collective Soul 
Song: Listen 
Album: Disiplined Breakdown 
Tabbed: Geoffrey Aaron supergman33@hotmail.com/http://come.to/olp 
Intro/Verse 
G--------------------------- 
D--------------------------- 
A--------------------------- 
E-5-5-5-5-5-5-5-5-5-5-5-5-5- 

Pre Chorus 
G------------------------------------------------------ 
D------------------------------------------------------ 
A---------------5-5-5-5-5-5-5-5---------------5-5-4-3-2 
E-5-5-5-5-5-5-5-----------------5-5-5-5-5-5-5---------- 

Chorus     repeat 3x     Final time end on this 
G---------------------l--------------------- 
D---------------------l--------------------- 
A---------5-3-5-5-5-5-l-5h7-5h7------------- 
E-5-5-5-5-------------l--------------------- 

Bridge 
G-------------------------------------------------------------- 
D-------------------------------------------------------------- 
A---------------5-5-5-5-5-5-5-------------------5-5-5-5-5-5-5-5 
E-5-5-5-5-5-5-5---------------5-5-5-5-5-5-5-5-5---------------- 

Guitar Solo 
G--------------------------------------- 
D--------------------------------------- 
A--------------------------------------- 
E-5-5-5-5-5-5-5-5-5-5-5-5-5-5-5-5-5-5-5-
Какой бой?
Помогите начинающим выбрать бой для этой песни
Выберите бой и нажмите кнопку Голосовать
Проголосовали 0 человека

ЕЩЕ ПЕСНИ

UKULA.RU
Песни Новое Избранное Аккорды Настроить