Назад

Песня

Collective Soul Scream

Аккорды

Тональность

			
			 
Artist: Collective Soul
Song: Scream	
Album: Hints Allegations and things left unsaid    Transcriber: Tom Tubbs Csoulede@aol.com

                             
    intro:
G||---------------------------||-------------------------||
D||*-------------------------*||*-----------------------*||
A||*---------4--0------------*||*---------------2----0--*||
E||--2-2-2-2---------0----1---||---2---2---2-------------||


verses:                     chorus:                                          
|------------------------|-----------------------|------------------------|
|*----------------------*|-----------------------|------------------------|
|*----------------------*|-------------2---2---2-|-------------4---4---4--|
|2--2--2--2--2--2--2--2--|--0---0---0------------|--2---2---2-------------|


solo:
|----------------------|------------------------|--------------------------|
|----------------------|------------------------|*------------------------*|
|0---0---0----0--0--1--|--2---2---2----2--2--0--|*---------4--0-----------*|
|----------------------|------------------------|--2-2-2-2------0-0-0-0-1--|
Какой бой?
Помогите начинающим выбрать бой для этой песни
Выберите бой и нажмите кнопку Голосовать
Проголосовали 0 человека

Еще песни

Песни Новое Избранное Аккорды Настроить