Collective Soul - Gel - аккорды на укулеле

СТРАНИЦА ПЕСНИ

АЛФАВИТ
Х
			
			 
#----------------------------------PLEASE NOTE---------------------------------#
#This file is the author's own work and represents their interpretation of the #
#song. You may only use this file for private study, scholarship, or research. #
#------------------------------------------------------------------------------##
From: KHANIMRN@udavxb.oca.udayton.edu
Date: Sat, 26 Aug 1995 10:08:34 -0400 (EDT)
Subject: Gel by Collective Soul

The intro to Gel by Collective Soul goes like this.
This is my first try at something like this, please bear with me.

-------------------------------------------------
---------------------------------------------------------
------------------------------8-----8----------------------------
-----------------------------------------------------------------
-------------6--7-----------------------------------6--7---------------
-----6--7-----------6--7---------7----------6--7----------6--7---7-7-7----

-----------------------------------------------------------------
-----------------------------------------------------------------
------------------------------8-----8----------------------------
-----------------------------------------------------------------
-------------6--7-----------------------------------6--7---------
-----6--7-----------6--7---------7----------6--7----------6--7---

Then from there pause for the drum'd high hat a little and kick in the
distortion.


Date: Fri, 14 Jul 1995 06:40:13 -0700
From: nasta@IX.NETCOM.COM (John Nasta)

Gel by Collective Soul

^ = Hammer-on or pull-off

Intro (clean)
|--------------------------------------|
|--------------------------------------|
|--------------------------------------| (repeat twice)
|-----1^2-----1---1------1^2-----------|
|-1^2-----1^2---2----1^2-----1^2-2-2-2-|
|--------------------------------------|

It's all barre chords from here on.
The B's are played on the 7th fret - heavy distortion.

B (6 counts) E^F E^D (4 times)

Verse 1

B					   E^F E^D
Color me any color
Speak to me in tongues and share
Tell me how you'd love to hate me
Tell me how you'd love to care

A		     |-0^2-0^3-|
Какой бой?
Помогите начинающим выбрать бой для этой песни
Выберите бой и нажмите кнопку Голосовать
Проголосовали 0 человека

ЕЩЕ ПЕСНИ

UKULA.RU
Песни Новое Избранное Аккорды Настроить