Collective Soul - Shine - аккорды на укулеле

СТРАНИЦА ПЕСНИ

АЛФАВИТ
Х
			
			 
Artist: Collective Soul
Song : Shine (Corrected Version)    

Verse

G-|------------------------------------------------------
D-|------------------------------------------------------
A-|---4----4----4----2----2----3---3---3-----------------
E-|------------------------------------------------------   

Chorus

G-|------------------------------------------------------
D-|------------------------------------------------------
A-|---2--2--------4-4-----2-2--------4-4-----------------
E-|----------3-3---------------3--3----------------------       


Part that goes....Yeah...This goes before the chours

G-|---------------------------------------------------------
D-|---------------------------------------------------------
A-|----4-4--7-7-4-4-7-7-7-7---------------------------------
E-|---------------------------------------------------------   

Guitar Solo               

G-|---------------------------------------------------------------
D-|--------------------------------------------------------------
A-|---2-2-2-2-2-2-2-2-2-------------------------4-4-4-4-4-4-4-4-4-
E-|------------------------3-3-3-3-3-3-3-3-3----------------------    


                               THat's ALL FOLKS!!!!!
Какой бой?
Помогите начинающим выбрать бой для этой песни
Выберите бой и нажмите кнопку Голосовать
Проголосовали 0 человека

ЕЩЕ ПЕСНИ

UKULA.RU
Песни Новое Избранное Аккорды Настроить