Collective Soul - Giving - аккорды на укулеле

СТРАНИЦА ПЕСНИ

АЛФАВИТ
Х
			
			 
- SONG:     Giving
- BAND:     Collective Soul
- TABBER:  Map Rock Webmaster
- EMAIL:    map@rock.org
   
       GIVING:

e|---------0-------------0-------------------------|
B|---------0-------------0--------0----------------|
G|-------------4---------4----4---2---1--1--------|
D|-1/2--2--------2---2--------1---x---2--2--------|
A|--------------------------------4----2--2--------|
E|-------------------------------------------------|

e|---------0---------------------------------------|
B|---------------0---------------------------------|
G|-------------------4----------------2--1--------|
D|-1/2--2---------------------1-------2--2---------|
A|-------------------------------------4--2--------|
E|-------------------------------------------------|

e|--------------------------------------------------------------------|
B|--------------------------------------------------------------------|
G|-----6~~~~~4~~~~~~6~~~~~~4~~~~~3-------------------6---|
D|------------------------------------------------------4-------------|
A|--------------------------------------------------------------------|
E|--------------------------------------------------------------------|

   
CHORDS USED:              Emaj7     E5     E     A     E/G     F#11     B       E    B7    B5     E



Какой бой?
Помогите начинающим выбрать бой для этой песни
Выберите бой и нажмите кнопку Голосовать
Проголосовали 0 человека

ЕЩЕ ПЕСНИ

UKULA.RU
Песни Новое Избранное Аккорды Настроить