Imagine Dragons - Demons Acoustic Live - аккорды на укулеле

СТРАНИЦА ПЕСНИ

АЛФАВИТ
Необходимо подобрать бой по ритму
			
			 
Introduction:
|-----------------------------------------------------------------------------------|
|--1-0-1-0---1-0-1-0---1-0-1-0---1-0-1-0---1-0-1-0---1-0-1-0---1-0-1-0---1-0-1-0----|
|----------0---------0---------0---------0---------2---------2----------------------|   Repeat during the
|----------------------------------------------------------------------3---------3--|   verses.
|-----------------------------------------------------------------------------------|
|-----------------------------------------------------------------------------------|

Pre-Chorus:
|-----------------------------------------------------------------------------------|
|--1-0-1-0---1-0-1-0---1-0-1-0---1-0-1-0---1-0-1-0---1-0-1-0---1-0-1-0---1-0-1-0----|
|----------0---------0---------0---------0---------2---------2----------------------|
|----------------------------------------------------------------------3---------3--|
|--3---------3---------3---------3---------0---------0------------------------------|
|--------------------------------------------------------------1---------1----------|

Backup Guitar Introduction:     (strum one time each quietly)

C G Am F 

Backup Guitar Pre-Chorus:

|----------------------------------------------|
|----------------------------------------------|
|----------------------------------------------|       Repeat throughout Pre-Chorus.
|----------------------------------------------|
|--3------3/5----------------------------------|
|-------------3---------3/5-5---------5h4/1-1--|

At Verses V and VI, play the chords as you would in the Chorus, 
just mute them. 

Verse I:
When the days are cold
And the cards all fold
And the saints we see
Are all made of gold

Verse II:
When your dreams all fail
And the ones we hail
Are the worst of all
And the blood's run stale

Pre-Chorus:
I wanna hide the truth
I wanna shelter you
But with the beast inside
There's nowhere we can hide

No matter what we breed
We still are made of greed
This is my kingdom come
This is my kingdom come

Chorus:
C                    G
Oh, When you feel my heat
             Am
Look into my eyes
                     F
It's where my demons hide
                     C
It's where my demons hide

C             G
Don't get too close
          Am
It's dark inside
                     F
It's where my demons hide
                     C
It's where my demons hide   (Hold out the C Chord and Go 
                                right into the Verse Tab.)

Verse III:
At the curtains call
It's the last of all
When the lights fade out
All the sinners crawl

Verse IV:
So they dug your grave
And the masquerade
Will come calling out
At the mess you've made

Pre-Chorus:
I wanna hide the truth
I wanna shelter you
But with the beast inside
There's nowhere we can hide

No matter what we breed
We still are made of greed
This is my kingdom come
This is my kingdom come

Chorus:
C                    G
Oh, When you feel my heat
             Am
Look into my eyes
                     F
It's where my demons hide
                     C
It's where my demons hide

C             G
Don't get too close
          Am
It's dark inside
                     F
It's where my demons hide
                     C
It's where my demons hide   (Hold out the C Chord and Go 
                               right into the Verse Tab.)

Verse V:  (Mute Chords)
C                      G
They say it's what you make
                 Am
I say it's up to fate
                 F
It's woven in my soul
                  C
I need to let you Go

Verse: VI  (Mute Chords)
C                        G
Your eyes, they shine so bright
                  Am
I wanna save that light
                    F (Hold for one beat, then mute.)
I can't escape this now
Unless you show me how

Chorus: (Get into it here. Really start to jam.)
C                    G
Oh, When you feel my heat
             Am
Look into my eyes
                     F
It's where my demons hide
                     C
It's where my demons hide

C             G
Don't get too close
          Am
It's dark inside
                     F
It's where my demons hide
                     C
It's where my demons hide
Какой бой?
Помогите начинающим выбрать бой для этой песни
Выберите бой и нажмите кнопку Голосовать
Проголосовал 4 человек

ЕЩЕ ПЕСНИ

UKULA.RU
Песни Новое Избранное Аккорды Настроить