Imagine Dragons - All Eyes - аккорды на укулеле

СТРАНИЦА ПЕСНИ

АЛФАВИТ
Х
			
			 
first part of 1st verse (singing)
e|---------------------------------------------------------------------------|
B|--1-1-1-1-1-1-1-3-3-1-1-1-1-1-1-1-0-0-0-0-0-0-0-3-3-0-0-0-0-0-0-0-1-1-1-1-1|
G|---------------------------------------------------------------------------|
D|---------------------------------------------------------------------------|
A|---------------------------------------------------------------------------|
E|---------------------------------------------------------------------------|

second prt of 1st verse
e|---------------------------------------------------------------------------|
B|-1-1-1-1-1-1---1-1-1-1-1-1-1-1-1-1-1-1-1-1---------1-1-1-1-1-1-1-3-3-1-1-1-|
G|---------------------------------------------------------------------------|
D|---------------------------------------------------------------------------|
A|---------------------------------------------------------------------------|
E|---------------------------------------------------------------------------|

e|---------------------------------------------------------------------------|
B|-1-1-1-1-0-0-0-0-0-0-0-3-3-0-0-0-0-0-0-0-1---1-1-1-1-1-1-1-1-1-1-1-1-1-1-1-|   
G|---------------------------------------------------------------------------|
D|---------------------------------------------------------------------------|
A|---------------------------------------------------------------------------|
E|---------------------------------------------------------------------------|

Chorus
e|------------------------------------3-0---3-0------3-0---3-0-------0-0---0-|
B|-1-1-1-1-1-1-1-1-1-1-1------------------------3--1-----------3-1-------3---|
G|---------------------------------------------------------------------------|
D|---------------------------------------------------------------------------|
A|---------------------------------------------------------------------------|
E|---------------------------------------------------------------------------|

2nd verse
e|---0----0-0----3-0-----0-0---0--0----0-0----3-0----------------------------|
B|-----3------3------3-------3------3------3------1---------------------1-1-1|
G|---------------------------------------------------------------------------|
D|---------------------------------------------------------------------------|
A|---------------------------------------------------------------------------|
E|---------------------------------------------------------------------------|

repeat 1st part of 1st verse
e|----------------------3-3-1-0-0--------------------------------------------|
B|---1-1-1--0-1-3---1-1-----------1----1-1-1---------1-----------------------|
G|-------------------------------------------2-2-0---------------------------|
D|---------------------------------------------------------------------------|
A|---------------------------------------------------------------------------|
E|---------------------------------------------------------------------------|

Chorus
e|--3-0---3-0-----3-0---3-0--------0-0---0--0----0-0----3-0------------------|
B|------------3--1----------3-1--------3------3------3------1----------------|
G|---------------------------------------------------------------------------|
D|---------------------------------------------------------------------------|
A|---------------------------------------------------------------------------|
E|---------------------------------------------------------------------------|

e|---------------------------------------------------------------------------|
B|---------------------------------------------------------------------------|
G|---------------------------------------------------------------------------|
D|---------------------------------------------------------------------------|
A|---------------------------------------------------------------------------|
E|---------------------------------------------------------------------------|
Какой бой?
Помогите начинающим выбрать бой для этой песни
Выберите бой и нажмите кнопку Голосовать
Проголосовали 0 человека

ЕЩЕ ПЕСНИ

UKULA.RU
Песни Новое Избранное Аккорды Настроить