Imagine Dragons - It's Time (btab) - аккорды на укулеле

СТРАНИЦА ПЕСНИ

АЛФАВИТ
Бой Шестёрка
			
			 
The bass starts at 0:36 

Verse 1 
G|-----7--------7------------------------------------------------------------| 
D|-----------------------------------------------------------5--------5------| 
A|---5---5----5---5------4--------4--------9--------9------------------------| 
E|---------------------5---5----5---5----7---7----7---7----3---3----3---3-335| 
 
Chorus 
G|---------------------------------------------------------------------------| 
D|---------------------------------------------------------------------------| 
A|--5555555555555555-2222222222222222----------------------------------------| 
E|------------------------------------0000000000000000-2222222222222222------| 
  
Verse 2 
G|----7--------7-------------------------------------------------------------| 
D|----------------------------------------------------------5--------5-------| 
A|--5---5----5---5------4--------4--------9--------9-------------------------| 
E|--------------------5---5----5---5----7---7----7---7----3---3----3---3-3/5-| 
  
G|----7--------7-------------------------------------------------------------| 
D|----------------------------------------------------------5--------5-------| 
A|--5---5----5---5------4--------4--------9--------9-------------------------| 
E|--------------------5---5----5---5-0457---7----7---7----3---3----3---3-3/5-| 
 
G|---------------------------------------------------------------------------| 
D|----4--7-----4--7--------------------------9--------------5--------5-------| 
A|--55--5----55--5------4--7-----4--------9--------9-----------5-------------| 
E|--------------------55--5----55--5-55677--7----77--7-11233--3----33--3-335-| 
 
Chorus x2  
G|---------------------------------------------------------------------------| 
D|---------------------------------------------------------------------------| 
A|--5555555555555555-2222222222222222----------------------------------------| 
E|------------------------------------0000000000000000-2222222222222222------| 
  
Bridge 
G|---------------------------------------------------------------------------| 
D|---------------------------------------------------------------------------| 
A|--2222222x22222222-----------------------------------------------------5---| 
E|-------------------5555555x55555555-2222222x20000000x02222222x255555555----| 
 
G|------------------------------------| 
D|------------------------------------| 
A|------------------------------------| 
E|--0000000000000000-2222222222222222-| 
  
Final chorus 
G|---------------------------------------------------------------------------| 
D|---------------------------------------------------------------------------| 
A|--2222222222222222---------------------------------------------------------| 
E|-------------------5555555555555555-22222222-00000000-22222222-55555555----| 
  
Outro 
G|---------------------------------------------------------------------------| 
D|----4--7----4---7----4---7----4---7----------------------------------------| 
A|--55-5----55--5----55--5----55--5----5~------------------------------------| 
E|---------------------------------------------------------------------------| 
Какой бой?
Помогите начинающим выбрать бой для этой песни
Выберите бой и нажмите кнопку Голосовать
Проголосова 1 челове

ЕЩЕ ПЕСНИ

UKULA.RU
Песни Новое Избранное Аккорды Настроить