︿

Puisque tu pars — Jean-Jacques Goldman

Укулеле
Гитара

Бой

Помогите выбрать бой

Аккорды

Тональность



						 
 D   
 Puisque l'ombre gagne 
          Bm   
 Puisqu'il n'est pas de montagne 
      G                                    Em   
 Au-dela des vents, plus haute que les marches de l'oubli 
 A   
 Puisqu'il faut apprendre 
    D                 G   
 А defaut de le comprendre 
  Em                            A   
 А rever nos desirs et vivre des "ainsi soit-il" 
 
 D  
 Et puisque tu penses 
          Bm  
 Comme une intime evidence 
      G                                  Em  
 Que parfois meme tout donner n'est pas forcement suffire 
 A  
 Puisque c'est ailleurs 
     D               G  
 Qu'ira mieux battre ton coeur 
 Em                                      A  
 Et puisque nous t'aimons trop pour te retenir 
            A  
 Puisque tu pars 
 
 e|----12-9-10----10-9-9-7-7-----15-14-14-12-12-10-10-9h10- 
 B|-10----------7------------/12--------------------------- 
 G|-------------------------------------------------------- 
 D|-------------------------------------------------------- 
 A|-------------------------------------------------------- 
 E|-------------------------------------------------------- 
 
 C                               Am   
 Que les vents te menent ou d'autres ames plus belles 
         F                                   Dm   
 Sauront t'aimer mieux que nous puisque l'on ne peut t'aimer plus 
 G   
 Que la vie t'apprenne 
          C             F   
 Mais que tu restes le meme 
    Dm                                G   
 Si tu te trahissais, nous t'aurions tout a fait perdu 
 
 C                             Am  
 Garde cette chance,  que nous t'envions en silence 
       F                           Dm  
 Cette force de penser que le plus beau reste a venir 
 G  
 Et loin de nos villes 
         C              F  
 Comme octobre l'est d'avril 
    Dm                                 G             C   Am  
 Sache qu'ici reste de toi comme une empreinte indelebile 
 
 C                                   Am  
 Sans drame, sans larmes pauvres et derisoires armes 
         F                                        Dm  
 Parce qu'il est des douleurs qui ne pleurent qu'a l'interieur 
 G  
 Puisque ta maison 
        C               F  
 Aujourd'hui, c'est l'horizon 
    Dm                               G  
 Dans ton exil, essaie d'apprendre a revenir 
               G  
 Mais pas trop tard 
 
 e|---10-7-8-----8-7-7-5-5-----13-12-12-10-12-8-8-7h8------ 
 B|-8---------5------------/10----------------------------- 
 G|-------------------------------------------------------- 
 D|-------------------------------------------------------- 
 A|-------------------------------------------------------- 
 E|-------------------------------------------------------- 
 
 Reprise 01`: (3x) 
 G               C  
 Dans ton histoire 
                Am  
 Garde en memoire 
              F  
 Notre au revoir 
              Dm  G  
 Puisque tu pars 
 
 C                        Am  
 J'aurais pu fermer, oublier toutes ces portes 
 F                                        Dm  
 Tout quitter sur un simple geste, mais tu ne l'as pas fait 
 C                          Am  
 J'aurais pu donner tant d'amour et tant de force 
 F                                       Dm  
 Mais tout ce que je pouvais, ca n'etait pas encore assez 
 
 Reprise 02`: (2x) 
        C         Am          F  Dm G  
 Pas assez, pas assez, pas assez 
 
 Reprise 01`: (6x)    =  Outro avec Solo de guitare 
 e|----------------------------|--------------------------------------------12-13-15-15b-15b 
 B|-----------------------8-8--|--------13-15b-15b-15-15b-13-13-13-12-13-15----------------- 
 G|-15-5-5-5b--5-5-5b--5-5---5-|-5/12-14---------------------------------------------------- 
 D|----------------------------|------------------------------------------------------------ 
 
 e|-15--15-15-15-13-13--12-12-13-12b---------------15-15-15-15----15---15------15----------- 
 B|---------------------------------15-13-15-15b-15-----------15b---15b-15b-15b--15b-15b-15- 
 G|----------------------------------------------------------------------------------------- 
 D|-----------------------------------------------------------------------------------------  
 
 e|-20b-20b-20b-22b-22b-20-22-20-19/20--19-17----17---------15/17--15-17-15----------------- 
 B|-------------------------------------------20----20b-20b-----------------18--17-17-17--15 
 G|----------------------------------------------------------------------------------------- 
 D|----------------------------------------------------------------------------------------- 
  
 e|--------15/17--15-17-15-------------------------15--------------------------------------- 
 B|------------------------18--17-18-17-15------------18-17-15-13/15b-13----13-/-15-13-(13)- 
 G|-17-16----------------------------------17--16------------------------14---------------- 
 D|----------------------------------------------------------------------------------------- 
  
 e|----------------------------------------------------------------------------------------- 
 B|-(13)--15b------15--13-12------------------------------------------12-13-15-13---12------ 
 G|-------------14-----------14-12-14-12---------------------12-13-14-------------14--14-12- 
 D|--------------------------------------14-13-12---12-13-14-------------------------------- 
 A|----------------------------------------------------15----------------------------------- 
  
 e|-----------15-----15-----15-----------------------15-17-19-20-20b-20b---20--| 
 B|----13-15b----15b----15b----15b-15b-13---15-17-18---------------------------| 
 G|-14-------------------------------------------------------------------------| 
 D|----------------------------------------------------------------------------|


Аккорды Jean-Jacques Goldman - Puisque tu pars для гитары и укулеле

Какой бой?
Помогите начинающим выбрать бой для этой песни
Выберите бой и нажмите кнопку Голосовать
Проголосовали 0 человека

Еще песни

UKULA

Темная версия

Шрифт

|
+

Дизайн