︿

Closer. — Chainsmoker

Укулеле
Гитара

Бой

Помогите выбрать бой

Аккорды

						 
CAPO on 1st FRET 
 
Intro: C  D  Em  D  C  D  Em  D  
  
Verse 1: Andrew Taggart 
 C         D        Em  
Hey, I was doing just fine just before I met you 
  D        C                              D    Em  D  
I drank too much and that's an issue but I'm okay 
 C       D        Em  
Hey, you tell your friends it was nice to meet them 
 D    C                    D   Em  D  
But I hope I never see them again 
 
MELODY: 
e|--------------------------------------------------------------------| 
B|--3------3-3---3-0-0-----------3-3-----3-0-5------------------------| 
G|---------------------2-2-0--------------------2-2-0-------4-2-------| 
D|-----------------------------------------------------0-2------------| 
A|--------------------------------------------------------------------| 
E|--------------------------------------------------------------------|  
 
Pre-Chorus: Andrew Taggart: 
 C                       D  
I know it breaks your heart 
 Em                               D     C  
Moved to the city in a broke down car and 
                D  
Four years, no calls 
 Em                                   D      
Now you're looking pretty in a hotel bar and 
 C  D        Em D  
I  can't stop 
    C  D         Em D  
No, I  can't stop 
 
MELODY: 
e|--3--3--3-5-5---3-3-3-3-3-3-5-5-3------10-7-----------------7-------| 
B|---------------------------------------------10-8--------------10---| 
G|---------------------------------------------------7---7-9----------| 
D|--------------------------------------------------------------------| 
A|--------------------------------------------------------------------| 
E|--------------------------------------------------------------------| 
  
Chorus: Andrew Taggart 
   C               D        Em                   D  
So baby pull me closer in the backseat of your Rover 
         C                 D  
That I know you can't afford 
          Em                   D  
Bite that tattoo on your shoulder 
           C                       D  
Pull the sheets right off the corner 
        Em                    D  
Of the mattress that you stole 
           C                  D  
From your roommate back in Boulder 
         Em             D  
We ain't ever getting older 
 
MELODY: 
e|----------------------------------------------------------------| 
B|-9-11-11-9-9-11-11-9-9-13-13-9-9-11-11-9-9-11-------------------| 
G|----------------------------------------------------------------| 
D|----------------------------------------------------------------| 
A|----------------------------------------------------------------| 
E|----------------------------------------------------------------| 
 
e|----------------------------------------------------------------| 
B|-9-11-11-9-9-11-11-9-9-13-13-9-9-11-11-9-9-11-------------------| 
G|----------------------------------------------------------------| 
D|----------------------------------------------------------------| 
A|----------------------------------------------------------------| 
E|----------------------------------------------------------------| 
 
e|----------------------------------------------------------------| 
B|-9-11-11-9-9-11-11-9-9-13-13-9-9-11-11-9-9-11-------------------| 
G|----------------------------------------------------------------| 
D|----------------------------------------------------------------| 
A|----------------------------------------------------------------| 
E|----------------------------------------------------------------| 
 
e|----------------------------------------------------------------| 
B|-9-11-11-9-9-11-11-9-9-13-13-9-9-11-11-9-9-11-------------------| 
G|----------------------------------------------------------------| 
D|----------------------------------------------------------------| 
A|----------------------------------------------------------------|
E|----------------------------------------------------------------|

Аккорды Chainsmoker - Closer. для гитары и укулеле

Какой бой?
Помогите начинающим выбрать бой для этой песни
Выберите бой и нажмите кнопку Голосовать
Проголосовали 0 человека

Еще песни

UKULA

Темная версия

По все вопросам [email protected]

Шрифт

|
+

Дизайн