︿

Come A Little Closer — Dierks Bentley

Укулеле
Гитара

Бой

Аккорды

						 
CAPO 3rd

E------------------------------------|
B-10-10-10---8--8--7-------7?--------|
G----------7---------2--7?---5-------|
D------------------------------------|
A------------------------------------|
E------------------------------------|
 
D             G                   D
Come a little closer baby, I feel like laying you down
 D             G                      D
On a bed of sweet surrender, where we can work it all out
Bm                        G  Bm                      G
There ain't nothing that love can't fix, girl it's right here 
at our fingertips
 D               G                   D
So come a little closer baby, I feel like laying you down

D              G                 D
Come a little closer baby, I feel like letting Go
D                   G                      D
Of everything that stands between us, and the love 
we used to know
Bm                G       Bm                    G
I wanna touch you like a cleansing rain and let it 
wash all the hurt away
D                G                 D
So come a little closer baby, I feel like letting Go

Bm                          G                      D
If there's still a chance, then take my hand, and we'll steal away
Bm                   G                E
Up into the night, to make things right, 
the suns gonna rise on a better day

E------------------------------------|
B-10-10-10---8--8--7-------7?--------|
G----------7---------2--7?---5-------|
D------------------------------------|
A------------------------------------|
E------------------------------------|

D              G                    D
Come a little closer baby, I feel like stripping it down
D              G                          D
Back to the basics of you and me, and what makes the world 
Go round
Bm           G           Bm                       G
Every inch of you against my skin, I wanna be stronger 
than we've ever been
D           G                    D
So come a little closer, I feel like striping it down
D              G      D                G
Come a little closer baby, just a little bit closer baby
D              G                  D
Come a little closer baby, I feel like laying you down

E------------------------------------|
B-10-10-10---8--8--7-------7?--------|
G----------7---------2--7?---5-------|
D------------------------------------|
A------------------------------------|
E------------------------------------|

Аккорды Dierks Bentley - Come A Little Closer для гитары и укулеле

Какой бой?
Помогите начинающим выбрать бой для этой песни
Выберите бой и нажмите кнопку Голосовать
Проголосова 1 челове

Еще песни

UKULA

Темная версия

По все вопросам [email protected]

Шрифт

|
+

Дизайн