Песня

Инструмент

Сторисы

Аккорды

Тональность

				
Em   D    C         B7
Снова брошен в окна лунный свет.
Em     D     C     Em
Дом мой, сонный, серебром одет.

Проигрыш: Em D C B7
E-3-2-----2-0-----------2-------2- |
B-------3-------1-4---4-------4--- |
G-----2-------0-----4-------4----- |
D---0-----0----------------------- | x2 
A-----------3-----2-------2------- |
E-0------------------------------- |

Em   D   C       B7
Лунной кисти не достичь глубин.
Em D    C    Em
Эту бездну знаю я один.

Проигрыш: Em D C B7
E-3-2-----2-0-----------2-------2- |
B-------3-------1-4---4-------4--- |
G-----2-------0-----4-------4----- |
D---0-----0----------------------- | x2 
A-----------3-----2-------2------- |
E-0------------------------------- |

Припев:
E        Am
Всё, всё как вчера.
E        Am   C D
Всё, всё как вчера
E        Am
Всё, всё как вчера,
      B7
Но без тебя.

Em     D     C       B7
Ревность, жалость словно заодно.
Em   D    C      Em
Птицей скорби падаю на дно.

Проигрыш: Em D C B7
E-3-2-----2-0-----------2-------2- |
B-------3-------1-4---4-------4--- |
G-----2-------0-----4-------4----- |
D---0-----0----------------------- | x2 
A-----------3-----2-------2------- |
E-0------------------------------- |

Припев:
E        Am
Всё, всё как вчера.
E        Am   C D
Всё, всё как вчера
E        Am
Всё, всё как вчера,
      B7
Но без тебя.
Какой бой?
Помогите начинающим выбрать бой для этой песни
Выберите бой и нажмите кнопку Голосовать
Проголосовали 0 человека

Еще песни

Песни Новое Избранное Аккорды Настроить