Песня

Инструмент

Сторисы

Аккорды

Тональность

				
(Часть I)
andante соn mото
  e|-------------0-|-5-----------4-------|-5-----------------0-|
4 B|---------------|-------------5-------|-------2-----3-------|
/ G|о--------------|-------2-------------|-2-----2-----4-----1-|
4 D|о--------------|-------------------2-|---------------------|
  A|---------------|---------------------|---------------------|
  E|---------------|---------------------|---------------------|
 
e|---------------0-|-------------7---5-|-4----2--0--2----------|
B|-2-------0-------|-4-----2--0--------|------------4-----5--4-|
G|-2---------------|-4---------------2-|-4---------------------|
D|---------2-------|-------------6-----|-----------------------|
A|-----0-----------|-------------------|------------2----------|
E|-----------------|-------------------|-----------------------|

e|-0-----------------------|
B|-0-----------------------|
G|-1----------------------о|
D|-2----------------------о|
A|-------2-----------------|
E|-------------0-----------|

(Часть II)
e|-----------------|---------------------|-------------------0-|
B|-----------------|-0-----------------2-|-3-------------------|
G|о-----------1--2-|-------1-----------2-|-4-----------------1-|
D|о----------------|-------------2-------|-------2-------------|
A|-----------------|---------------------|---------------------|
E|-----------------|---------------------|-------------0-------|

e|-------------2----------|-------------------0-|-2----------4-|
B|-2-----------------3--2-|-0-------------------|-3----------3-|
G|-2-----4--2-------------|-0-------------------|--------------|
D|-------------0-----0----|-2-------------------|-0------------|
A|-------4----------------|-------2-----------4-|------------2-|
E|------------------------|-------------0-------|--------------|

e|-5-----4--2--0-------|----------------------|----------------|
B|-5-----------------3-|-2---------0----------|----------------|
G|---------------------|-2---------1--------2-|-2-------------о|
D|-------------------0-|-2--------------------|-------2-------о|
A|-4-------------------|----------------------|-------------0--|
E|---------------------|-----------0----------|----------------|
Какой бой?
Помогите начинающим выбрать бой для этой песни
Выберите бой и нажмите кнопку Голосовать
Проголосовали 0 человека

Еще песни

Песни Новое Избранное Аккорды Настроить