︿

The Fool — Quicksilver Messenger Service

Укулеле
Гитара

Бой

Помогите выбрать бой

Аккорды

						 
Intro:		
[e:----------------------------------------------------
B:----------------------------------------------------
G:----------------------------------------------------
D:-7/16---15(8)-8---7--8--10--8--7h8p7h8p7h8..etc...-
A:----------------------------------------------------
E:----------------------------------------------------

e:---------------------------------------------------------
B:---------------------------------------------------------
G:---------------------------------------------------------
D:-7--8/(10)-10--10--10--10--10--8--7--5--3--2h3p2p0--0--0-
A:---------------------------------------------------------
E:---------------------------------------------------------

e:---------------------------------------------------------------
B:---------------------------------------------------------------
G:-------------------------------6--7---7-----6-----4------------
D:-2--3/(5)-5--5--5--5--7--7--8--------------------------5-(5)h7-
A:---------------------------------------------------------------
E:---------------------------------------------------------------

e:-------------------------------------------------------------
B:-------5-----7-----------------------------------------------
G:-7--------------6--7-----------------------------------------
D:-----------------------9p7-----9p7---------------------------
A:----------------------------9-------9---7---7-7-7--7---------
E:-------------------------------------------------------------]

Аккорды Quicksilver Messenger Service - The Fool для гитары и укулеле

Какой бой?
Помогите начинающим выбрать бой для этой песни
Выберите бой и нажмите кнопку Голосовать
Проголосовали 0 человека

Еще песни

UKULA

Темная версия

По все вопросам [email protected]

Шрифт

|
+

Дизайн