Павел Фахртдинов - Выведи - аккорды на укулеле

СТРАНИЦА ПЕСНИ

АЛФАВИТ
Х
			
			 
Am  G  E/G#  Am9 
Выведи меня отсюда, человек с крыльями 
Dm7/6  Gsus  C9  E 
Я хочу найти рельефы следа на воде 
Am  G  E/G#  Am9 
Мне когда-то было слово, я его выменял 
Dm7/6  Gsus  C9  E 
А сейчас так много слов, но все не те 
 
Dm7/9  G *
Только слышу, как спускаются на крыши 
C 
Люди, или же высшее 
C9/B  B6-5  A7sus4 
Что не ново — они несут нам слово 
Dm7/9  G  
Позабытое, потерянное, временами 
C 
Между нами бывшее, 
Bm7-5  E 
А теперь, кто мы друг без друга... 
 
Проигрыш: 
1-------------0--------|--------------------|-------------------|----------------
2----------------------|----------------0---|----------------0--|------------0--- 
3---5-------------5----|---5-------5--------|---5-------5-------|---5------------ 
4--------3-------------|-------3------------|--------3----------|--------0------- 
5----------------------|--------------------|-------------------|---------------- 
6---5------------------|---5----------------|---4---------------|---3------------ 
 
1---------------------|-------------0-------|---1-------0-------|------------0-------
2---0--------1--------|---3-----------------|-------------------|-----------------0-- 
3--------0--------0---|--------0-------0--=-|-------2-------1---|---2---------------- 
4---------------------|---------------------|-------------------|-------0------------ 
5---3-----------------|---------------------|---2---------------|-------------------- 
6---------------------|---------------------|-------------------|---0---------------- 
 
Am  G  E/G#  Am9 
Выведи меня отсюда верою в светлое 
Dm7/6  Gsus  C9  E 
Страшно в одиноком лифте жизни в темноте 
Am  G  E/G#  Am9 
Мне б найти без грима лица черные, белые 
Dm7/6  Gsus  C9  E 
Я все время вижу маски, все не те 
 
Dm7/9  G *
Только слышу, как спускаются на крыши 
C 
Люди, или же высшее 
C9/B  B6-5  A7sus4 
Что не ново — они несут нам слово 
Dm7/9  G  
Позабытое, потерянное, временами 
C 
Между нами бывшее, 
Bm7-5  E 
А теперь, кто мы друг без друга...  
 
Am  G  E/G#  Am9 
Выхожу еженощно на узкий балкон подышать никотином 
Dm7/6  Gsus  C9  E 
Оставляя себя на постели лежащего навзничь 
Am  G  E/G#  Am9 
В коридоре у двери входной только пара ботинок 
Dm7/6  Gsus  C9  E 
На всякий случай я не запираюсь на ночь 
Am  G  E/G#  Am9 
Вдруг захочется выйти куда-нибудь и не звенеть ключами 
Dm7/6  Gsus  C9  E 
Чтоб не будить того, кого уже долго нету... 
F+7-5  F#dim 
Я курю на балконе пустыми-пустыми ночами 
 E  
И смотрю вослед навсегда уходящему следу... 
 E
Выведи меня отсюда, человек с крыльями...
Какой бой?
Помогите начинающим выбрать бой для этой песни
Выберите бой и нажмите кнопку Голосовать
Проголосовали 0 человека

ЕЩЕ ПЕСНИ

UKULA.RU
Песни Новое Избранное Аккорды Настроить