Песня

Инструмент

Сторисы

Аккорды

Тональность

				
Вступление: 
2 раза 
1 ---3--------3---1/0---------------------
2 --------1---------------1-------1/3/1/0-
3 -----------------------------2----------
4 -------------------------3--------------
5 ---3------------------------------------
 
Потом 
1 ---3--------3---1/0------------------------0-----
2 --------1---------------1-------0/1---1--------1-
3 -----------------------------0-------------------
4 -------------------------------------------------
5 ---3------------------------------------3--------
6 -------------------------3-----------------------
 
C  G6/B  
Играй, не считая минуты, 
Am7  E/G#  
Просто играй свои ноты. 
F+7  C 
Не думай о том, почему ты, 
Bm7-5  E7 
Но помни о том, для кого ты. 
Am  E/G#  
Пусть к первым тебя не причислят, 
Am  G 
С тобой можно будет согреться. 
F9  C  G  Am 
Просто играй свои мысли, 
G6/B  F9  G  C 
Просто играй своё сердце. 
 
И если играешь не с теми, 
Не расставляй им оценок, 
Проигрывай скучные тени, 
Выигравый каждый оттенок. 
И законсервируй излишек, 
Потом тебе это запишут. 
Не важно, что кто-то не слышит, 
А важно, что кто-то услышит. 
Не важно, что кто-то не слышит, 
Важно, что кто-то услышал. 
 
Проигрыш: C | G | Am | B7 | Em | D | G 
          D | G | F# | Bm | A | D | G  
 
Пусть долго твой звук взаперти был, 
Играя, ты сможешь понять. 
Не страшно, что кто-то сфальшивил, 
Он хоть попытался сыграть 
Играй, не считая минуты, 
Просто играй свои ноты. 
Не думай о том, почему ты, 
Думай о том, для кого ты. 
Не думай о том, почему ты, 
Просто играй своё сердце. 
Какой бой?
Помогите начинающим выбрать бой для этой песни
Выберите бой и нажмите кнопку Голосовать
Проголосовали 0 человека

Еще песни

Песни Новое Избранное Аккорды Настроить