Песня

Инструмент

Сторисы

+

Аккорды

Тональность

				
6|-----0-----------------------------------------------
5|-----------------------------------------------------
4|-----------------------------0-----------------------
3|-0-------0-----0-----0-----0-----2-----2-----2-------
2|---0---0-----0-----0-----0-----3-----3-----3---------
1|-----7-----5-----3-----0-----5-----3-----2-----2h3p2-

6|-5-----------------------------------0---------------
5|-------------------------2---------------------------
4|-----------------------------------------------------
3|-----5-----2-----2-----2-----2-----------------------
2|---5-----1-----1-----1-----0-----1p0-----------------
1|-5-----3-----2-----2-----2-----2-----0---------------

Припев:
6|-5---------------------------------------------------
5|-----------------------------------------------------
4|-----------------------------------------------------
3|-----5------------0-----0-----5------------0-----0---
2|---5------------0-----0-----5------------0-----0-----
1|-5-----5-7-5--0-----0-----5-----5-7-5--3-----3-------

6|------------------0-------------------0--------0-----
5|-----------------------------------------------------
4|-0------------------------0--------------------------
3|-----2------------0-----0-----2----------------------
2|---3------------0-----0-----3----------------4h5-----
1|-2-----2-3-2--0-----0-----2-----2-3-2-0--7654--0-----

1|---7--5--3--2--5--3--2--2--5--3--2--0---------
2|----5--5--5--5--4--4--4--4--5--5--5--5-4---3-4
3|-----4--4--4--4--4--4--4--4--5--5--5--5-4-5-54
4|-----------------------------------------4---4

1|----3--3--3--3--3--3--3--3--2--2--3--3--2--2323
2|-----5--5--5--5--5--5--5--5--1--1--5--5--1----5
3|------5--5--4--4--5--5--4--4--2--2--4--4--2---4
Какой бой?
Помогите начинающим выбрать бой для этой песни
Выберите бой и нажмите кнопку Голосовать
Проголосовали 0 человека

Еще песни

Песни Новое Избранное Аккорды Настроить