Песня

Инструмент

Сторисы

+

Аккорды

Тональность

				
e-------------------------------------|------------------------
B----5--610--|10-9--10-9--10-9--10-9--|10-9--10-9--10-9--10-9--
G-7-----------------------------------|------------------------
D-------------------------------------|------7-----------------
A-------------------------------------|------------------------
E-------------------------------------|------------------------

e-------------------------|-----------------------|------------------------
B-11-10-11-10-11-10-11-10-|11-------------5--610--|-10-9--10-9--10-9--10-9-
G---------------7---------|-----------------------|------------------------
D-------------------------|-----------------------|-------7----------------
A-------------------------|-----------------------|------------------------
E-------------------------|-----------------------|------------------------

e-------------------------|-------------------------|---
B-11-10-11-10-11-10-11-10-|-11-12-12----10-8--8-----|-7-
G-------------------------|-------------------------|---
D-------------------------|-------------------------|---
A-------------------------|-------------------------|---
E-------------------------|-------------------------|---
Какой бой?
Помогите начинающим выбрать бой для этой песни
Выберите бой и нажмите кнопку Голосовать
Проголосовали 0 человека

Еще песни

Песни Новое Избранное Аккорды Настроить