︿

Клен ты мой опавший — Народные и застольные песни

Укулеле
Гитара

Бой

По ритму

Аккорды

						 
E-7---------3-2-0---------5-------5---------2-0---3-------2-------|
B-----0-----------1-----------5-------3---------3-----0-------0---|
G---0---0-------------2-----5---5---5---5-----------0---0---2---2-|
D---------2---------2---2---------0-------4-----------------------|
A-----------------0---------------------------------------2-------|
E-0-----------------------------------------------3---------------|

E-3---------3-2-0---------2---0-------------------2-------0-------|
B-----0-----------1---------1---1-----0-0-2---4-------0---0-------|
G---0---0-------------2-----2---2---2-------2---2---0---0-0-------|
D---------2---------2---2-----------1-------1---4---------2-------|
A-----------------0---------------2-------------------------------|
E-0-----------------------------------------------0---------------|

Аккорды Народные и застольные песни - Клен ты мой опавший для гитары и укулеле

Какой бой?
Помогите начинающим выбрать бой для этой песни
Выберите бой и нажмите кнопку Голосовать
Проголосовал 2 человек

Еще песни

UKULA

Темная версия

По все вопросам [email protected]yandex.ru

Шрифт

|
+

Дизайн