︿

Цыганочка — Народные и застольные песни

Укулеле
Гитара

Бой

По ритму

Аккорды

						 
Для двух гитар:
   Dm     Am     E      Am        
E|--5-7-5--5-7-5--7-8-7--5-7-5-|
B|--6-6-6--5-5-5--5-5-5--5-5-5-|
G|--7-7-7--5-5-5--7-7-7--5-5-5-| }x2 
D|-0---------------------------|
A|--------0-------------0------|
E|---------------0-------------|

   Dm      Am      E       Am      Dm      Am      E      Am
E|-3-1-3-1-1-0-1-0-0---0------------------------------------|
B|-------------------3---3-3-1-3-1-1-0-1-0-0---0------------|
G|-------------------------------------------2---2-2-1--1-2-|
D|-----------------------------------------------------4----|
A|----------------------------------------------------------|
E|----------------------------------------------------------|

Аккорды Народные и застольные песни - Цыганочка для гитары и укулеле

Какой бой?
Помогите начинающим выбрать бой для этой песни
Выберите бой и нажмите кнопку Голосовать
Проголосовали 26 человека

Еще песни

Цыганочка

Прикольные песни

Цыганочка

Прикольные песни

Цыганочка

Прикольные песни

Клен ты мой опавший

Народные и застольные песни

Родина

Народные и застольные песни

Дорогой дальнею (табы)

Народные и застольные песни

Зелёные рукава (Greensleeves)

Народные и застольные песни

В траве сидел кузнечик

Народные и застольные песни

Sa aming bahay

Народные и застольные песни

Rudolph The Red Nosed Reindeer

Народные и застольные песни

Alle Jahre wieder

Народные и застольные песни

God rest ye merry gentlemen

Народные и застольные песни

Little drummer boy

Народные и застольные песни

Андро Вердас (Цыганские песни)

Народные и застольные песни

Anchors Aweigh

Народные и застольные песни

Две гитары

Народные и застольные песни

If All of The Raindrops

Народные и застольные песни

Wayfaring Stranger

Народные и застольные песни

Эй, ухнем

Народные и застольные песни

Deck the Halls

Народные и застольные песни

Полюшко поле

Народные и застольные песни

Ах, уехал мой любимый

Народные и застольные песни

Клен ты мой опавший

Народные и застольные песни

Ах, ты степь, широкая

Народные и застольные песни

Зоре вечiрняя

Народные и застольные песни

Happy Birthday To You

Народные и застольные песни

Южная ночь

Мурат Насыров

Цыганочка

Разные песни

Цыганочка

Разные песни

Моя цыганочка

Вова из Одессы

UKULA

Темная версия

По все вопросам [email protected]

Шрифт

|
+

Дизайн