︿

Amarok — Mike Oldfield

Укулеле
Гитара

Бой

Помогите выбрать бой

Аккорды

Тональность



						 
Repeat 4 times
G--------------------------------------------------------------------
D------0---------------0-------0-----3--po(0)----0-----0-----0-----0-
A---------pr0--h3--h5-------------5------------5----3-----------0----
D-pr0--*------------------pr0--*--------------------------5----------

and then
G--------------0-----------------------------------------------------
D-pr0--h3--h5-----3--po(0)---------------0-----0---------------------
A---------------------------pr0--h3--h5-----5-----3--po(0)-----------
D--------------------------------------------------------------------

G--------------------------------------------------------------------
D--------------------------------------------------------------------
A--------------0---------------0-----------5-----------5-------------
D-pr0--h3--h5-----pr0--h3--h5-----pr5--h7-----pr5--h7-----pr7--h5----
                   and now the whole thing again...


Аккорды Mike Oldfield - Amarok для гитары и укулеле

Какой бой?
Помогите начинающим выбрать бой для этой песни
Выберите бой и нажмите кнопку Голосовать
Проголосовали 0 человека

Еще песни

UKULA

Темная версия

Шрифт

|
+

Дизайн