︿

Afghan — Mike Oldfield

Укулеле
Гитара

Бой

Помогите выбрать бой

Аккорды

Тональность



						 
[e--------------------------------------------------
B-------9-10-12----9------------------10-9-9-------
G----11---------11---11-9-9-------8-9--------11-11-
D--9-------------------------9-11------------------
A--------------------------------------------------
E--------------------------------------------------

e-----------------------------------------------------
B-------9-10-12------9-------------------10-9-9-------
G----11---------9-11---11--9-9-------8-9--------11-11-
D--9----------------------------9-11------------------
A-----------------------------------------------------
E-----------------------------------------------------]

This part is actually played on bagpipe but here it is anyway:
[e-------------------------
B-------------------------
G--11---11-9--------------
D-----9------12-11-9----9-
A--------------------12---
E-------------------------

e-------------------------
B-------------------------
G------11-9---------------
D----9------12-11-9---9---
A--9----------------12----
E-------------------------]

Then:
[e------------------------------------------------------------
B--------------9-10-12----10-9------------------10-9-9-------
G--11-9-8-9-11---------11------11-9-9-------8-9--------11-11-
D--------------------------------------9-11------------------
A------------------------------------------------------------
E------------------------------------------------------------

e-------------------------------------------------
B-------9-10-12----9-----------------10-9-9-------
G----11---------11---11-9-9------8-9--------11-11-
D--9------------------------9-11------------------
A-------------------------------------------------
E-------------------------------------------------]

Play the bagpipe thing again...

Then:
[e-------------------------------------------
B-----------9-12-9-------------9-12-9-------
G--8-9-11----------11-8---------------11-11-
D---------9-------------11-9-9--------------
A-------------------------------------------
E-------------------------------------------

e----------------------------------9-------
B-------------9---------------9-12---12-12-
G--8-9-11-8-------11-8---------------------
D-----------9---9------11-9-9--------------
A------------------------------------------
E------------------------------------------

e--------------------------------------------------
B--------9-10-12-10-9-----------------10-9-9-------
G--11-11--------------11-9-9-9----8-9--------11-11-
D------------------------------11------------------
A--------------------------------------------------
E--------------------------------------------------

e------------------------------------------------------
B--------9-10-12-12-10-9------------------10-9-9-------
G--11-11------------------11-9-9-9----8-9--------11-11-
D----------------------------------11------------------
A------------------------------------------------------
E------------------------------------------------------]

Bagpipe again...

Then:
[e--------------------------------------------
B------------9-12-9-------------9-12-9-------
G-8-9-11-8----------11-8---------------11-11-
D----------9-------------11-9-9--------------
A--------------------------------------------
E--------------------------------------------

e--------------------------------------------9------------
B------------9-12-9----------------9-12-9-12---12-9-12-12-
G-8-9-11-8----------11-8--------11------------------------
D----------9-------------11-9-9---------------------------
A---------------------------------------------------------
E---------------------------------------------------------

e------------------------------------------
B-------------9---------------9-12-9-------
G--8-9-11-8-------11-8---------------11-11-
D-----------9---9------11-9-9--------------
A------------------------------------------
E------------------------------------------

e--------------------------11-9---------9---------9----
B-----------9-12-9--------------12-9-12---12-9-12---12-
G--8-9-11----------11-8/11-----------------------------
D---------9--------------------------------------------
A------------------------------------------------------
E------------------------------------------------------]

The ending is played on bagpipe:
[e-----------------------------------------------
B-----9-10-12-10-9---------------10-9-9---------
G--11--------------11-9-9----8-9--------11-9-11-
D-------------------------11--------------------
A-----------------------------------------------
E-----------------------------------------------

e-------------------------------------------------
B-------9-10-12-10-9---------------10-9-9---------
G----11--------------11-9-9----8-9--------11-9-11-
D--9------------------------11--------------------
A-------------------------------------------------
E-------------------------------------------------

e------------------------
B------------------------
G-----11-9---------------
D---9------12-11-9----9--
A------------------12----
E------------------------

e-------------------------
B-------------------------
G------11-9---------------
D----9------12-11-9----9--
A--9----------------12----
E-------------------------]


Аккорды Mike Oldfield - Afghan для гитары и укулеле

Какой бой?
Помогите начинающим выбрать бой для этой песни
Выберите бой и нажмите кнопку Голосовать
Проголосовали 0 человека

Еще песни

UKULA

Темная версия

Шрифт

|
+

Дизайн