Песня

Инструмент

Сторисы

Аккорды

Тональность

				
                
                
    Ем     С      Ам              С
e|--0-3----3-0----5-3-5-3-5-3-5-3-5-7------|
B------------------------------|
G------------------------------|
D------------------------------|

Аккорды (которые играет гармошка):

             Ем                 С              Ам          С
e|0---0-0---0-0---|3---3-3---3-3---|0---0-0---0-0---|0---0-0---0---|
B|0---0-0---0-0---|1---1-1---1-1---|1---1-1---1-1---|1---1-1---1---|
G|0---0-0---0-0---|0---0-0---0-0---|2---2-2---2-2---|0---0-0---0---|

Гитарный перебор:

e|3---0---3----7---3-----0-----3----7----3--|

Бас:
G--------------------------------|
D--------------------------------|
A------------3---3-2-0--0-----0--------------|
E|--0-0----0---------------------3-3----3-2--|
Какой бой?
Помогите начинающим выбрать бой для этой песни
Выберите бой и нажмите кнопку Голосовать
Проголосовали 0 человека

Еще песни

Песни Новое Избранное Аккорды Настроить