Kinks - Waterloo Sunset - аккорды на укулеле

СТРАНИЦА ПЕСНИ

АЛФАВИТ
Х
			
			 
E-------------------------------------------------- 
B--------4----------------------------------------- 
G--5--3-----5b--3b-----------------3--------------- 
D------------------------3--/5--3-----5b--3b------- 
A-------------------------------------------------- 
E-------------------------------------------------- 
 
E-------------------------------------------------- 
B-------------------------------------------------- 
G-------------------------------------------------- 
D-------------5---3-------------------------------- 
А--3--/5-------------6---3-------------------------
E----------6--------------------------------------- 
 
riff #2 (play this wherever you see an asterisk *) 
 
E--------------------------------------------------- 
B--------------------------------------------------- 
G---5---8---5---/3---------------------------------- 
D-------------------3------------------------------- 
A--------------------------------------------------- 
E--------------------------------------------------- 
 
LYRICS: 
Dirty old river, must you keep rolling, rolling into the night * 
People so busy, make me feel dizzy, taxi light shines so bright * 
But I don't need no friends 
As long as I gaze on Waterloo Sunset, I am in paradise * 
Every day I look at the world from my window 
Chilly chilliest evening time, Waterloo sunset's fine 
 
Terry meets Julie, Waterloo Station, every Friday night * 
But I am so lazy, don't want to wander, I stay at home at night * 
But I don't feel afraid 
As long as I gaze on Waterloo Sunset, I am in paradise * 
Every day I look at the world from my window 
Chilly chilliest evening time, Waterloo sunset's fine. 
 
Millions of people swarming like flies `round Waterloo 
underground * 
Terry and Julie cross over the river where they be safe and sound * 
And they don't need no friends 
As long as they gaze on Waterloo Sunset, they are in paradise *
Какой бой?
Помогите начинающим выбрать бой для этой песни
Выберите бой и нажмите кнопку Голосовать
Проголосовали 0 человека

ЕЩЕ ПЕСНИ

UKULA.RU
Песни Новое Избранное Аккорды Настроить