︿

Anything But Mine solo — Kenny Chesney

Укулеле
Гитара

Бой

Помогите выбрать бой

Аккорды

Тональность



						 
Intro: (0:12, 1:43)
 
-5h7--7--7--7--5--4--5--0-----------------------------------------|
-5----5--5--5--5--5--5---0h2--------------------------------------|
------------------------------------------------------------------|
------------------------------------------------------------------|
------------------------------------------------------------------|
------------------------------------------------------------------|

(1:57)
-------------------------|
-7brp5-7---5-------------|
---------6---------------|
-------------------------|
-------------------------|
-------------------------|

(2:10)
-----12---------------------------|
-12b----b12rp9-----12-------------|
---------------11b----b11rp9-9h11-|
----------------------------------|
----------------------------------|
----------------------------------|

(2:23)
-------------------------|
-------------------------|
-------------------------|
-4brp2-4---2-------------|
---------4---------------|
-------------------------|

Solo 1 (3:03)
-----12-------------9----------------------------------------------------|
-12b----b12r-9--------12-9-----------------------------12-14-12----------|
----------------11b--------11brp9~---------9-11-11/13----------1311p9----|
---------------------------------------9/11------------------------------|
-------------------------------------------------------------------------|
-------------------------------------------------------------------------|

-----12-----------------12--------12--------12--------12--------12-|
-----12--------------12--------12--------12--------12--------12----|
-11b----b11r~/---14b-------14b-------14b-------14b-------14b-------|
-------------------------------------------------------------------|
-------------------------------------------------------------------|
-------------------------------------------------------------------|

--------12------0--------------17-19-----------------------------|
-----12----15b~-0-------17-19b-------b19r-17-19b-----------------|
-14b--------------16/18------------------------------------------|
-----------------------------------------------------------------|
-----------------------------------------------------------------|
-----------------------------------------------------------------|

-19-----------------19-------------------------------------------|
----b19r-17-17h19b-----b19r-17-----------------------------------|
-----------------------------------------------------------------|
-----------------------------------------------------------------|
-----------------------------------------------------------------|
-----------------------------------------------------------------|

Аккорды Kenny Chesney - Anything But Mine solo для гитары и укулеле

Какой бой?
Помогите начинающим выбрать бой для этой песни
Выберите бой и нажмите кнопку Голосовать
Проголосовали 0 человека

Еще песни

UKULA

Темная версия

Шрифт

|
+

Дизайн