︿

Йогурты — Жуки

Укулеле
Гитара

Бой

Помогите выбрать бой

Аккорды

Тональность

						 
----------------------------|----------------|----------------------------|
--------------------5--5----|----------------|--------------------3--3----|
--5--5----------------------|--7-------------|--4--4----------------------|
--------7--7----------------|----------------|--------6--6----------------|
--------------7--7----------|----------------|--------------7--7----------|
----------------------------|----------------|----------------------------|

----------------|----------------------------|----------------|
----------------|----------------------------|----------------|
--5s------------|--5--5--------------5--5----|----------------|
----------------|--------7--7----------------|--9-------------|
----------------|--------------8--8----------|----------------|
----------------|----------------------------|----------------|

----------------------------|----------------|----------------------------|
----------------------------|----------------|--------------------8--8----|
--4--4--------------5--5----|----------------|--9--9----------------------|
--------6--6----------------|--7-------------|--------11-11---------------|
--------------7--7----------|----------------|--------------12-12---------|
----------------------------|----------------|----------------------------|

----------------|----------------------------|----------------|
----------------|--------------------6--6----|----------------|
--10------------|--7--7----------------------|--9-------------|
----------------|--------9--9----------------|----------------|
----------------|--------------10-10---------|----------------|
----------------|----------------------------|----------------|

----------------------------|----------------|----------------------------|
----------------------------|----------------|----------------------------|
--5--5--------------5--5----|----------------|--4--4--------------5--5----|
--------7--7----------------|--9-------------|--------6--6----------------|
--------------8--8----------|----------------|--------------7--7----------|
----------------------------|----------------|----------------------------|

----------------||---------------|---------------||----------------|
----------------||---------------|---------------||----------------|
----------------||о--------------|--------------о||----------------|
--7-------------||о--------------|--------------о||----------------|
----------------||---------------|---------------||----------------|
----------------||---------------|---------------||----------------|

Am              Dm
Я люблю тебя, девчонка! 
E                  Am
Чистой искренней любовью, 
F                  Dm
Все к ногам твоим девчонка, 
E                  Am
К твоему все изголовью. 
A             Dm
Только денег маловато, 
G               C
А вернее денег нету, 
F                 Dm
Ни на плитку шоколада, 
E               Am
ни на малую конфету. 

ПРИПЕВ: 
           Am        Dm        E           Am
 А вокруг : сникерсы, сникерсы, сникерсы - уикерсы, 
Am      Dm      E        Am
 Баунти, баунти, баунти - уяунти! 
Am       Dm       G         C
 Йогурты, йогурты, йогурты - уегурты, 
Am       Dm        E    Am
 Легкие, воздушные йогурты! 

А по синему по морю, 
Ходит-бродит пароходик
Столько лет прошло, девчонка, 
Ничего не происходит. 
У других сверкает елка, 
На двоих накрытый ужин, 
А ты бросай меня, девчонка, 
Ну за чем такой я нужен. 

ПРИПЕВ.

Аккорды Жуки - Йогурты для гитары и укулеле

Какой бой?
Помогите начинающим выбрать бой для этой песни
Выберите бой и нажмите кнопку Голосовать
Проголосовали 0 человека

Еще песни

UKULA

Темная версия

По все вопросам em64ru@yandex.ru

Шрифт

|
+

Дизайн