︿

In A Little While — Hot Action Cop

Укулеле
Гитара

Бой

Помогите выбрать бой

Аккорды

						 
	In A Little While


E-------------------------------------------|
B--7-7-----10----3-3----------------------|
G---0--------0----0-------------------------|
D-------------------------------------------|
A--5-5--------0--2-2------------------------|
E-------7--9--------------------------------|

E-------------------------------------------|
B-------------------------------------------|
G----0------4-----6-------------------------|
D-----2----0-----0--------------------------|
A-------------------------------------------|
E--2-0-0/3----3/5---------------------------|

E-------------------------------------------|
B-------------0-----------------------------|
G----------2--------------------------------|
D--------------------0----------------------|
A--------0--0---0/2-------------------------|
E---5-------------------------------------|

Аккорды Hot Action Cop - In A Little While для гитары и укулеле

Какой бой?
Помогите начинающим выбрать бой для этой песни
Выберите бой и нажмите кнопку Голосовать
Проголосовали 0 человека

Еще песни

UKULA

Темная версия

По все вопросам em64ru@yandex.ru

Шрифт

|
+

Дизайн