Песня

Инструмент

Аккорды

Тональность

				
Hey this Is for the Start of Auf Ache by Franz Ferdinand


e|-------------------------------------0-------------|
B|---1----0----------------1----0--------------------|
G|-----------2----------------------2----------------|
D|--------------2------------------------------------|
A|---0---------------------3-------------------------|
E|---------------------------------------------------|

e|-------------------------------------5--------------|
B|---6----5----------------6-----5--------------------|
G|-----------7----------------------7-----------------|
D|--------------7-------------------------------------|
A|---8---------------------5--------------------------|
E|----------------------------------------------------|

e|----------------------------------------------------|
B|---1----0----------------0--------------------------|
G|-----------2------------------2---------------------|
D|--------------2------------------0------------------|
A|---0---------------------3----------3---------------|
E|----------------------------------------------------|

e|-----------0--------------------0-------------------|
B|---3----1---------------3----1-------------2--------|
G|--------------2--------------------0----------------|
D|---0--------------------3---------------------------|
A|----------------------------------------------------|
E|----------------------------------------------------|


Enjoy
Какой бой?
Помогите начинающим выбрать бой для этой песни
Выберите бой и нажмите кнопку Голосовать
Проголосовали 0 человека

Еще песни

Песни Новое Избранное Аккорды Настроить