Би-2 - Мой рок-н-ролл - аккорды на укулеле

СТРАНИЦА ПЕСНИ

АЛФАВИТ
Х
			
			 
Ну вот рифф1 (он же и последний):

Играется аккорд C , потом он переносится на 3-й лад, потом Am
два раза, и все это с чередованием указательного пальца.
E|---------0--------------------------0-----------------|
B|----1-------0-----1----------3--------0-----3---------|
G|------0--------0-----0---------0---------0-----0------|
D|------------------------------------------------------|
A|-3-------------------------5--------------------------|
E|------------------------------------------------------|

E|----------0---------------------0---------|
B|---1---------0-----1--------1-----0---1---|
G|------2---------2-----2-------2-----2---2-|
D|------------------------------------------|
A|-0------------------------0---------------|
E|------------------------------------------|

Между припевом и куплетом можно вставить
E|-0--------|
B|----0-----|
G|--------0-|
D|----------|
A|----------|
E|----------|

Текст:
 И то, что было набело
 Откроется потом
 Мой рок-н-ролл
 Это не цель и даже не средство
 Не новое, а заново
 Один и об одном
 Дорога в мой дом
 И для любви это не место

 Припев:
 Прольются все слова, как дождь
 И там, где ты меня не ждешь
 Ночные ветры принесут тебе прохладу
 На наших лицах без ответа
 Лишь только отблески рассвета
 Того, где ты меня не ждешь

 А дальше - это главное
 Похожий на тебя
 В долгом пути
 Я заплету волосы лентой
 И не способный на покой
 Я знак подам тебе рукой
 Прощаясь с тобой
 Как будто с легендой

 Припев:
 Прольются все слова, как дождь
 И там, где ты меня не ждешь
 Ночные ветры принесут тебе прохладу
 На наших лицах без ответа
 Лишь только отблески рассвета
 Того, где ты меня не ждешь

 И то, что было набело
 Откроется потом
 Мой рок-н-ролл
 Это не цель и даже не средство
 Не новое, а заново
 Один и об одном
 Дорога в мой дом
 И для любви это не место
Какой бой?
Помогите начинающим выбрать бой для этой песни
Выберите бой и нажмите кнопку Голосовать
Проголосовали 0 человека

ЕЩЕ ПЕСНИ

UKULA.RU
Песни Новое Избранное Аккорды Настроить
© 2020