Песня

Инструмент

Сторисы

Аккорды

Тональность

				
                
                
Вступление:

E||-----------0---------|-----------------------------|---------------------|
B||------------------0--|--L------------0s--1s--0-----|-----------1---------|
G||---------------------|--------------------------0--|------------------0--|
D||---------------------|-----2--0s--2----------------|---------------------|
A||--2------------------|-----------------------------|--3------------------|
E||--0------------------|-----------------------------|---------------------|

  
---------------------------||
---------------------------||
--L---------------0--------||
-----2---------4-----4-----||
--------3s--5-----------5--||
---------------------------||

Em                 C     D
Заплетали мне косы русые, 
Пели песни, ой да, печальные, 
Злато сыпали в ноги белые, 
Серебром мои руки путали. 

Тетивою тугой натянута, 
Уткой серою, крылья выпростав, 
Полетела бы к солнцу красному, 
Да вокруг только тьма кромешная… 

Проигрыш:Em C H C H Em C H C H Em

На реке была – там туман седой, 
В поле ягоды – горем сочные, 
Во лесу сыром сбила ноженьки, 
Леший-батюшка звал по имени. 

Скоротаю ночь недреманную, 
А как солнышко небо высветит, 
Гляну в зеркало – там Она стоит, 
Волоса седы, да беззубая…
Какой бой?
Помогите начинающим выбрать бой для этой песни
Выберите бой и нажмите кнопку Голосовать
Проголосовали 0 человека

Еще песни

Песни Новое Избранное Аккорды Настроить