︿

Hillbilly bone — Blake Shelton

Укулеле
Гитара

Бой

Помогите выбрать бой

Аккорды

						 
Verse 1:
A
Well, I gotta friend in New York City
G
He's never heard of Conway Twitty
E
Don't know nothin' bout' grits and greens
C
Never been south of Queens
A
But he flew down here on a buissness trip
G
I took him Honky Tonkin' and that was it
E
He took to it like a fish to mud,
C
like a cow to cudd

Chorus:
A
We all got a Hillbilly Bone down deep inside
F
It doesn't matter where your from, ya just can't hide it
E
When the band starts bangin' and the fiddle saws
C
ya can't help a hollar and a ye-haw
A
when ya see those pretty little country queens
F
man ya gotta admit that it's in them genes
E
Aint nothin wrong , just gettin' on
C
your Hillbilly Bone-Ba-Bone-Ba-Bone-Bone

Verse 2:(SAME CHORDS AS VERSE 1)
Well ya aint gotta be born out in the sticks
with a F1-50 and a thirty odd six
or have a Bubba in the family tree
to get on down with me

yeah Bubba all ya need is an open mind
if it fires ya up, ya gotta let it shine
when it feels so right that it can't be wrong
C'mon, C'mon, C'mon, ya aint alone (ya aint alone)
(REPEAT CHORUS)
(REPEAT CHORUS AGAIN)

TAB:

INTRO:
e----------------------------------------------------------------------|
B----------------------------------------------------------------------|
G----------------------------------------------------------------------|
D-------7/6-5/4-3/2-1--------------------------5---5-3-5-3-5-3-3-------|
A-3-5-3-7/6-5/4-3/2-1---7/6-5/4-3/6------3-5-3-----------------5-------|
E-------7/6-5/4-3/2-1---7/6-5/4-3/6------------------------------------|

SOLO:(MY BEST SHOT,ANYWAY)
e--------------------------------------------------------|
B---------------------------------7p0-5p0-3p0-2p0-1p0-0--|
G------3-----------3-------------------------------------|
D-3-5-3-5-3-5-3-5-3-5-3-5-3-5-3-5------------------------|
A--------------------------------------------------------|
E--------------------------------------------------------|

e-9b----7-5-5-3-3-1-0-------------------------|
B---------------------3p5-3p5-3p5-5-3-1-3-2-0-|
G---------------------------------------------|
D---------------------------------------------|
A---------------------------------------------|
E---------------------------------------------|

Note: Chords May be wrong. May be capo or something.

SINCERELY,
GUITARSLINGER

Аккорды Blake Shelton - Hillbilly bone для гитары и укулеле

Какой бой?
Помогите начинающим выбрать бой для этой песни
Выберите бой и нажмите кнопку Голосовать
Проголосовали 0 человека

Еще песни

UKULA

Темная версия

По все вопросам [email protected]

Шрифт

|
+

Дизайн