Arctic Monkeys - Too Much To Ask - аккорды на укулеле

СТРАНИЦА ПЕСНИ

Х
			
			 
 e | --------------------------------1----8-------------------------------- | 
 Bb| --------------------------------3----10------------------------------- | 
 G | --------0------------------0----2----9-------------------------------- | 
 D | ----2-------2/5-4-------1-----0--------------------------------------- | 
 A | -------------------6/2-------------0---------------------------------- | 
 E | --0---0--------------------------------------------------------------- | 
 
Verse 1:  
       Em                         Bb7  
The smiles as she walked in the room 
       Dm                            Am  
have all turned into frowns am I too quick to assume 
          Em                      Bb7  
that the love is no longer in bloom 
        Dm                            Am  
The tantrums and the tears play a very different tunes to what they
  Em                  Bb7  
did before Their heads red raw 
          Dm                               Am  
And the ending doesn't sound like the happiest around When you 
  Em                 Bb7                        Dm  
sobbed before it felt much more like the product of the squabble 
  Am  
Now there's reason for it to be something more 
 
Chorus:  
   Am  
And there would be 
                                        G  
Oh its uncertain whether the curtain has shut for good She 
                                                            Am  
said "see if it's still raining but I'm not dressed for it, and  
if you loved me..." 
                                          Bb7  
And I interrupt to receive the scowl and stare
But still decided to stop her there  
 
Verse 2: (Turner sings as he plays the riff) 
 
Would it be too outrageous to say 
We're either shouting or we're shagging locked 
in tempestuous phase 
At least that's how we felt yesterday 
The eyes are getting heavier and whether you're sleep or ... 
 
e|------7---------------7---------10-------------------------------7--------| 
B|----8---8-10---8----8---8-10s12-------10-12-13-12-10----8---8-10---8------| 
G|--9----------9----8----------------10----------------10---9---------------| 
D|--------------------------------------------------------------------------| 
A|--------------------------------------------------------------------------| 
E|--------------------------------------------------------------------------| 
 
e|------7---------------7---------10----------------------------------------| 
B|----8---8-10---8----8---8-10s12-------10-12-13-12-10----10--10--7---------| 
G|--9----------9----8----------------10----------------10-----11--8---------| 
D|------------------------------------------------------------12--9---------| 
A|--------------------------------------------------------------------------| 
E|--------------------------------------------------------------------------| 
 
Chorus: 
      Am  
... awake is a mistery 
                             G  
Would a kiss be too much to ask 
                                                            Am  
When you fit me as sunday's frozen pitch fits the thermos flask 
It's a pity 
                            Bb7  
It just hit me we can't go back 
To the chest touching on the back
 
Outro: 
 e  | ---------0------- | 
 Bb | ---------0------- | 
 G  | ---------0------- | 
 D  | ---------2------- | 
 A  | ---------2------- | 
 E  | ----3-2--0------- |

ЕЩЕ ПЕСНИ

UKULA.RU
Песни Новое Избранное Аккорды Настроить
© 2019