︿

Вольно! — Агата Кристи

Укулеле
Гитара

Бой

Аккорды

Тональность



						 
Вступление: x2
1 -7---------5-------------------7-0------------
2 ---8-5-5---5-----7-8-7-8-7-8-----------------  
3 ---------------5------------------------------
4 -----------------5----------------------------
5 ----------------------------------------------
6 ----------------------------------------------

    Em     Em7     Em    Em7
Счастье мое, почему ты грустишь?
    Am      C     B       Em
Прячешь лицо и молчишь, и молчишь?

Проигрыш в середине куплета:
1 -7---------
2 ---8---0---
3 -----5-----
4 -----------
5 -----------
6 -----------

    Em     Em7     Em    Em7
Плетка твоя над кроватью весит.
    Am      C     B       Em
Бей меня, бей, если хочешь убить.

Припев:
   Am             C            G
Вольно, можешь разорвать меня на части.
   D                    A
Я-то знаю, что такое счастье.
   Am                      C
И мне уже почти, почти не больно.
   D
Вольно!

    Em     Em7     Em    Em7
Ждал и молчал. Я-то думал, ты спишь.
    Am      C     B       Em
Ты открыла глаза. Почему ты молчишь?

Проигрыш в середине куплета:
1 -7---------
2 ---8---0---
3 -----5-----
4 -----------
5 -----------
6 -----------

    Em     Em7     Em    Em7
Не плач, мой палач. Лишь меня позови,
    Am      C     B       Em
Бей меня, бей, если хочешь любви.

Припев:
   Am          C         G
Вольно самое крутое впереди 
   D                   A
До него осталось полпути 
   Am                      C
И мне уже почти-почти не больно 
   D
Вольно!

Проигрыш перед соло:
1 --0-5---5-0----3----2--0--5--5-0----3----2--
2 ---------------3----3-----------------3----3--
3 ----------------------------------------------
4 ----------------------------------------------
5 ----------------------------------------------
6 ----------------------------------------------

Соло:
                1
1 --4-5-7-9-7-9--9-7-5-7-9-9-9-9----------------
2 -7-----------------------------7-8-7---------- дальше повторяется
3 ---------------------------------------------- с 1 черты
4 ----------------------------------------------
5 ----------------------------------------------
6 ----------------------------------------------

Проигрыш в конце: x8 
1 ---7--79-------5----4------------------------
2 -7--------7---5----5-------------------------
3 ---------------------------------------------
4 ---------------------------------------------
5 ---------------------------------------------
6 ---------------------------------------------

Припев:
   Am          C         G
Вольно самое крутое впереди 
   D                   A
До него осталось полпути 
   Am                      C
И мне уже почти-почти не больно 
   D
Вольно!
   Am             C            G
Вольно, можешь разорвать меня на части.
   D                    A
Я-то знаю, что такое счастье.
   Am                      C
И мне уже почти, почти не больно.
   D
Вольно!


Аккорды Агата Кристи - Вольно! для гитары и укулеле

Какой бой?
Помогите начинающим выбрать бой для этой песни
Выберите бой и нажмите кнопку Голосовать
Проголосовали 5 человека

Еще песни

Агата Кристи. "Два корабля"

Переделанные песни (пародии)

Собачье сердце

Агата Кристи

Агата Кристи. "Два корабля"

Переделанные песни (пародии)

Агата Кристи, ''Два корабля''

Переделанные песни (пародии)

Последнее желание

Агата Кристи

Фрау его мечты

Агата Кристи

Холодная любовь

Агата Кристи

Вольно

Агата Кристи

Пуля

Агата Кристи

Пуля

Агата Кристи

Я буду там

Агата Кристи

Вольно

Агата Кристи

Гетеросексуалист

Агата Кристи

Дезертир

Агата Кристи

Танго с дельтапланом

Агата Кристи

Звездочёт

Агата Кристи

Сердцебиение

Агата Кристи

Второй фронт

Агата Кристи

Герои

Агата Кристи

Дворник

Агата Кристи

Второй фронт

Агата Кристи

Никогда

Агата Кристи

Аллергия

Агата Кристи

Кондуктор

Агата Кристи

Со щитом иль на щите

Агата Кристи

Серое небо (табы)

Агата Кристи

Эпилог. На краю

Агата Кристи

Прощальное письмо

Агата Кристи

Дорога Паука

Агата Кристи

Больно мне и одиноко.

Нэнси

UKULA

Темная версия

Шрифт

|
+

Дизайн