︿

Забери — 5nizza

Укулеле
Гитара

Бой

Перебором

Аккорды

						 
Перебор:
E|-------0---------------0---------|
B|-----0---0---0-------0---0---0---|
G|---0-------0---0---0-------0---0-|
D|---------------------------------|
A|---------------------------------|
E|-3---------------2---------------|

E|-------0-------------------------|
B|-----0---0---0-------0-----0-----|
G|---0-------0---0---0-----0-----0-|
D|---------------------------------|
A|-----------------2-----3-----5---|
E|-0-------------------------------|

Аккорды 5nizza - Забери для гитары и укулеле

Какой бой?
Помогите начинающим выбрать бой для этой песни
Выберите бой и нажмите кнопку Голосовать
Проголосовал 2 человек

Еще песни

UKULA

Темная версия

По все вопросам [email protected]

Шрифт

|
+

Дизайн