︿

Sonne — Rammstein

Укулеле
Гитара

Бой

Помогите выбрать бой

Аккорды

						 
Drop D tuning
 
E||----------------------|-----------------|-------------------|
B||----------------------|-----------------|-------------------|
G||----------------------|-----------------|-------------------|
D||--0--6--0--6--5--0----|--0--6--0--6--0--|--0--6--0--6--5--0-|
A||--0--6--0--6--5--0----|--0--6--0--6--0--|--0--6--0--6--5--0-|
D||--0--6--0--6--5--0----|--0--6--0--6--0--|--0--6--0--6--5--0-|

E|----------------------|
B|----------------------|
G|----------------------|
D|--0--6--0--5--5--5--5-|
A|--0--6--0--5--5--5--5-|
E|--0--6--0--5--5--5--5-|

   Eins              Zwei
E||--------------------------|--------------------------|
B||--------------------------|--------------------------|
G||--------------------------|--------------------------|
D||--4-4-4-9-9-9-7-7-7-5-5-5-|--4-4-4-9-9-9-7-7-7-5-5-5-|
A||--2-2-2-7-7-7-5-5-5-3-3-3-|--2-2-2-7-7-7-5-5-5-3-3-3-|
D||--------------------------|--------------------------|

   Drei           Vier
E|--------------------------|--------------------------|
B|--------------------------|--------------------------|
G|--------------------------|--------------------------|
D|--9-9-9-9-9-9-5-5-5-4-4-4-|--9-9-9-9-9-9-5-5-5-4-4-4-|
A|--7-7-7-9-9-9-5-5-5-4-4-4-|--7-7-7-9-9-9-5-5-5-4-4-4-|
E|--------9-9-9-5-5-5-4-4-4-|--------9-9-9-5-5-5-4-4-4-|

  Alle warten auf das licht
  Furchtet euch furchtet euch nicht
  Die sonne scheint mir aus den augen
  Sie wird heute nacht nicht untergehen
  Und die welt zahlt laut bis zehn
    Hier commt die sonne
    Hier commt die sonne
   Sie ist der hellste stern von allen
     Hier commt die sonne
   Die sonne scheint mir aus den handen
  Kann verbrenden kann euch blenden
  Wenn sie aus den fausten bricht
  Legt sich heiss auf das gesicht
  Sie wird heut nacht nicht untergehen
  Und die welt zahlt laut bis zehn
    Hier commt die sonne
    Hier commt die sonne
    Sie ist der hellste stern von allen
    Hier commt die sonne
    Hier commt die sonne
    Hier commt die sonne
    Sie ist der hellste stern von allen
    Hier commt die sonne
  Die sonne scheint mir aus den handen
  Kann verbrenden kann euch blenden
  Wenn sie aus den fausten bricht
  Legt sich heiss auf das gesicht
  Legt sich schmerzend auf die brust
  Das gleichgewicht wird zum verlust
  Lasst dich hart zu boden gehen
  Und die welt zahlt laut bis zehn
    Hier commt die sonne
    Hier commt die sonne
   Sie ist der hellste stern von allen
   Und wird nie vom himmel fallen
   Hier commt die sonne
   Hier commt die sonne
   Sie ist der hellste stern von allen
   Hier commt die sonne

Аккорды Rammstein - Sonne для гитары и укулеле

Какой бой?
Помогите начинающим выбрать бой для этой песни
Выберите бой и нажмите кнопку Голосовать
Проголосовали 0 человека

Еще песни

UKULA

Темная версия

По все вопросам [email protected]

Шрифт

|
+

Дизайн