Песня

Инструмент

Сторисы

Аккорды

Тональность

				
Intro:
[Gtr. E---------------------------------------0---------------------------
      B----------5---6---8---6---5p0----------------------0-------0---1---
      G--5---0-----------------------5------------2h5p2---------------------
      D-----------------------------------3-----------3-------0-----------
      A--3-----------------------0----------------------------------------
      E------------------6--------------------------------3---------------
 
Gtr. E---------------------------------------0---------------------------
     B----------5---6---8h10p8p6--5---1--------------------0-------1p0-----
     G--2---0------------------------------------2h5p2-----------------2p0-
     D-----------------------------------3-----------3-------0-----------
     A--3-----------------------3---0--------------------------2---------
     E------------------6--------------------------------3---------------

Gtr. E-----------------------------------0-------------------------------
     B----------5---6---8---6---5--------------------3---3---0-----------
     G--5---0-----------------------5------------5---------------2-------
     D-----------------------------------0---3---------------------------
     A--3-----------------------0------------------------------------3---
     E------------------6--------------------------------3---------------

Gtr. E---------------------------------------0---------------------------
     B----------5---6---8h10p8p6--5---1--------------------0-------1p0-----
     G--5---0------------------------------------2h5p2-----------------2p0-
     D-----------------------------------3-----------3-------0-----------
     A--3-----------------------3---0--------------------------2---------
     E------------------6--------------------------------3---------------

Gtr. E--------------0------------------------------------------------
     B-------------------------------------------------------------------
     G--5---0---2--------------------------------------------------------
     D----------------------------------------------------------------
     A--3---------------3------------------------------------------------
     E-------------------------------------------------------------------]

VERSE:
     uho - dish'        proch' iz do - ma...
[Gtr. E--------------0--------------------------------0-------------------
      B---------------------------------------------------3-----------3---
      G------0---2-----------0---2h5p2p0------0---2---------------2-------
      D---------------------------------------------------0---3-----------
      A--3---------------3----------------3-------------------------------
      E-------------------------------------------------------------------

Gtr. E---------------------------------------------------3-------1---0---
     B------------------------------3----------------3-------------------
     G--2-------2-------5-------5--------0-------5-----------0-----------
     D------3-------3-------3----------------0-------0-------------------
     A-------------------------------------------3-----------------------
     E------------------4----------------3-------------------------------

Gtr. E------------------------------------ 2/4 measure --
     B------------------------------3----0-------0---1---
     G--5-------5---------------5------------------------
     D------5-------5-------5----------------------------
     A --3---------------3--------------------------------
     E-----------------------------------3---3-----------

Gtr. E-------------------------------------------------------------------
     B--1-----------1-----------1--------0---------------0h1p0-------------
     G----------2-------2------------------------0-----------0-----------
     D---------------------------------------0-------0-----------0-------
     A--0---0---------------0-------0------------------------------------
     E-----------------------------------3---------------------------3/--]

CHORUS:
     Noch'    v i - yule  pol - na..
[Gtr. E------------------0--------------------------------5---------------
      B-----------------------------------------------3-----------6---5---
      G----------0---2-------2---0--------0-------2-----------------------
      D---------------------------------------3---------------------------
      A--0---3-----------------------0------------------------------------
      E-------------------------------------------------------------------

Gtr. E-------------------------------------------------------------------
     B--3-----------3--------------------------------3-------------------
     G----------5-------5-------5--------5-------5-------5-------2h5p2p0---
     D--3---3---------------3-------3------------------------5-----------
     A-----------------------------------3---3---------------------------
     E-------------------------------------------------------------------

Gtr. E-------------------------------------------------------------------
     B--3-----------3--------------------1-----------1-------------------
     G----------2-------2-------2----------------2-------2-------2-------
     D--0---3---------------3-------3------------------------2-----------
     A-----------------------------------0---0-----------------------0---
     E-------------------------------------------------------------------

Gtr. E-------------------------------------------------------------------
     B--1-------1------------------------0---------------0h1p0-------------
     G------0-------0-------0---2h5p2p0------------------------0-----------
     D---------------------------------------0-------0-----------0-------
     A--3---------------3------------------------------------------------
     E-----------------------------------3-------3-------------------3---]
Какой бой?
Помогите начинающим выбрать бой для этой песни
Выберите бой и нажмите кнопку Голосовать
Проголосовали 0 человека

Еще песни

Песни Новое Избранное Аккорды Настроить