︿

Alone (btab) — Heart

Укулеле
Гитара

Бой

Помогите выбрать бой

Аккорды

						 
Intro: (00:00) 
-     No bass - 
 
Verse: (Bass comes in at 00:21) 
G|------|------|------|------| 
D|------|------|------|------| 
A|-1----|------|-1----|------| 
E|----2-|-4--2-|----2-|-4--5-| 
 
Pre-Chorus: (00:33) 
G|------|-------|------|----------| 
D|------|-------|------|--------6-| 
A|-9--8-|-------|-9--8-|-6----3-4-| 
E|------|-11--9-|------|----4-----| 
 
Chorus: (00:49) 
G|------------|------------|    G|-------------|-------------| 
D|------------|------------|    D|-----8-9-9-9-|-11-11-11-11-| 
A|-6-6--------|-9-9--------| x3 A|-9-9---------|-------------| x2 
E|------7-7-7-|------9-9-9-|    E|-------------|-------------| 
 
Verse 2: (Bass comes in at 01:30) 
G|------|------|------|------| 
D|------|------|------|------| 
A|-1----|------|-1----|------| 
E|----2-|-4--2-|----2-|-4--5-| 
 
Pre-Chorus: (01:41) 
G|------|-------|------|----------| 
D|------|-------|------|--------6-| 
A|-9--8-|-------|-9--8-|-6----3-4-| 
E|------|-11--9-|------|----4-----| 
 
Chorus: (01:58) 
G|------------|------------|    G|-------------|-------------| 
D|------------|------------|    D|-----8-9-9-9-|-11-11-11-11-| 
A|-6-6--------|-9-9--------| x5 A|-9-9---------|-------------| x2 
E|------7-7-7-|------9-9-9-|    E|-------------|-------------| 
 
Solo: (02:36) 
G|------------|------------|    G|---------|-----------|-----------| 
D|------------|------------|    D|-9-9-8-8-|-----------|-----------| 
A|-6-6--------|-9-9--------| x2 A|---------|-11-11-9-9-|-8-8-------| 
E|------7-7-7-|------9-9-9-|    E|---------|-----------|-----11-11-| 
 
G|---------| 
D|---------| 
A|---------| 
E|-9-9-7-7-| 
 
Chorus: (02:58) 
G|-------------|-------------| 
D|-----8-9-9-9-|-11-11-11-11-| 
A|-9-9---------|-------------| x4 (last time, let 11 ring) 
E|-------------|-------------| 
 
Outro: (03:23) 
-     No bass -

Аккорды Heart - Alone (btab) для гитары и укулеле

Какой бой?
Помогите начинающим выбрать бой для этой песни
Выберите бой и нажмите кнопку Голосовать
Проголосовали 0 человека

Еще песни

UKULA

Темная версия

По все вопросам [email protected]

Шрифт

|
+

Дизайн