︿

Thinking Out Loud — Ed Sheeran

Укулеле
Гитара

Бой

Аккорды

Тональность



						 
e|---------------------------------------------------------------------------| 
B|--------------------------8--7---7-7---------------------------------------| 
G|------------7-9--7-9-/-11-9--7-h-9-7------7---7-7---7----7-----------------| 
D|--------7-9-------------------------------7-h-9-7-h-9----7-----------------| 
A|---------------------------------------------------------------------------| 
E|---------------------------------------------------------------------------| 
                               This part in parenthesis is optional, it just adds flavor :) 
                               if the fingers arn't fast enough to slide just skip it 
e|---------------------------------------------------------------------------| 
B|--------------------------10-----------------------------------------------| 
G|------------7-9--7-9-s-11----(11-s)9-p-7---9-p-7---------------------------| 
D|--------7-9----------------------------------------------------------------| 
A|---------------------------------------------------------------------------| 
E|---------------------------------------------------------------------------| 
 
e|-------10---10-----10---10----10-----12^14----10~~~---12^14----------------| 
B|-------10-h-12-----10-h-12----10-------------------------------------------| 
G|---------------------------------------------------------------------------| 
D|---------------------------------------------------------------------------| 
A|---------------------------------------------------------------------------| 
E|---------------------------------------------------------------------------| 
 
e|-------10---10----10---10----10---10---10---------10----------------------------------------------| 
B|-------10-h-12----10-h-12----10-h-12---10---------12-----10---------------------------10~~~-------| 
G|---------------------------------------------------------9--h-11-p-9-(s)-7-----9-s-11-------------| 
D|--------------------------------------------------------------------------------------------------| 
A|--------------------------------------------------------------------------------------------------| 
E|--------------------------------------------------------------------------------------------------| 
 
e|------10-10-10------10-10-10------7-7-7-----5-5-5--------------------------| 
B|------12-12-12------10-10-10------8-8-8-----7-7-7--------------------------| 
G|---------------------------------------------------------------------------| 
D|---------------------------------------------------------------------------| 
A|---------------------------------------------------------------------------| 
E|---------------------------------------------------------------------------| 


Аккорды Ed Sheeran - Thinking Out Loud для гитары и укулеле

Какой бой?
Помогите начинающим выбрать бой для этой песни
Выберите бой и нажмите кнопку Голосовать
Проголосова 1 челове

Еще песни

UKULA

Темная версия

Шрифт

|
+

Дизайн