Cold - Just Got Wicked - аккорды на укулеле

СТРАНИЦА ПЕСНИ

АЛФАВИТ
Х
			
			 
Straight C Tuning, tune down two whole steps

1=C   4=Bb
2=G   5=F
3=Eb  6=C

| -----------------------------------------------------|
| -----------------------------------------------------|
| -------16-16-16-16-15-15-15-15-14-14-14-14-----------|
| -----------------------------------------------------|
| -2-2-------------------------------------------------|
| -0-0-------------------------------------------------|
  Intro play 3 times, followed by verse lick below

| -----------------------------------------|
| ------------------------------16h17------|
| -14-14-14-14-14/16-16-16-----------------|
| -----------------------------------------|
| -----------------------------------------|
| -----------------------------------------|
  Verse lick (tap these notes with pick)

| -----------------------------------------|
| -----------------------------------------|
| -------------14-------------7----14------|
| --------------------x-x------------------|
| --------5----12----x-x--5--5----12-------|
| ---7---------------x-x--3---------------|
  Chorus gtr. 1 (Terry)

| -----------------------------------------|
| -----------------------------------------|
| ---------7----14-------------7----14-----|
| --4-----------------x-x------------------|
| --2------5----12----x-x--5--5----12------|
| --------------------x-x--3---------------|
  Chorus gtr. 2 (Kelly)

| ---------------------------------|
| ---------------------------------|
| ---------------------------------|
| ---------2-2--3-3-3-3/5-5-5------|
| -2-2-x--0-0--1-1-1-1/3-3-3-------|
| -0-0-x---------------------------|
  Bridge
Какой бой?
Помогите начинающим выбрать бой для этой песни
Выберите бой и нажмите кнопку Голосовать
Проголосовали 0 человека

ЕЩЕ ПЕСНИ

UKULA.RU
Песни Новое Избранное Аккорды Настроить