︿

Flesh Into Gear — Cky

Укулеле
Гитара

Бой

Помогите выбрать бой

Аккорды

						 
             ______________________________________
            |            Artist : CKY              |
            |       Song: FLESH INTO GEAR          |
            |Album: INFILTRATE - DESTROY - REBUILD | 
            |        Tabbed by: aafs41             |
            | email: [email protected]   |
            |______________________________________|


|||----------------|---------------|----------------|----------------|
|4|----------------|---------------|----------------|----------------|
|4|--------------2-|4-4-4-4-4-4-4--|--------------2-|4-4-4-4-4-4-4-4-|
|||0-0-0-0-0-0-0---|-------------2-|0-0-0-0-0-0-0-0-|----------------|


|-----------------|----------------|3x
|°----------------|---------------°|
|°--------------2-|4-4-4-4-4-4-4--°|
|-0-0-0-0-0-0-0---|--------------2-|


|-----------------|----------------|3x
|°----------------|---------------°|
|°----------------|---------------°|
|-5-5-5-5-5-5-7-5-|4-4-4-4-4-4-2-0-|


|-----------------|----------------|3x
|°----------------|---------------°|
|°--------------2-|4-4-4-4-4-4-4--°|
|-0-0-0-0-0-0-0---|--------------2-|


|-----------------|----------------|3x
|°----------------|---------------°|
|°----------------|---------------°|
|-5-5-5-5-5-5-7-5-|4-4-4-4-4-4-2-0-|


||----------------|----------------|---------------|---------------|
||64-----64-4--46-|4------64-4--46-|46-----64-4--46|4--------------|
||--4-4----7--7---|-72-2----7--7---|--4-4----7--7--|-72-2---242---2|
||----------------|----------------|---------------|-------4---420-|


||----------------|----------------|64-------------|---------------|
||-------64-4--46-|47-----64-4--46-|-------64-4--46|4------64-4--46|
||76-------7--7---|--2-2----7--7---|--4-4----7--7--|-72-2----7--7--|
||--5-5-----------|----------------|---------------|---------------|

                                                     ~~
||----------------|----------------|---------------|6--4----------|
||46-----64-4--46-|4---------------|-------64-4--46|----6--4------|
||--4-4----7--7---|-72-2---242-----|76-------7--7--|------7--42---|
||----------------|-------4---4202-|--5-5----------|-----------42-|


|-----------------|----------------|3x
|°----------------|---------------°|
|°----------------|---------------°|
|-5-5-5-5-5-5-7-5-|4-4-4-4-4-4-2-0-|


|-----------------|----------------|3x
|°----------------|---------------°|
|°--------------2-|4-4-4-4-4-4-4--°|
|-0-0-0-0-0-0-0---|--------------2-|

[fadeout]
|-----------------|----------------|
|-----------------|----------------|
|---------------2-|4-4-4-4-4-4-4---|
|-0-0-0-0-0-0-0---|--------------2-|


|-----------------|----------------|
|-----------------|----------------|
|---------------2-|4-4-4-4-4-4-4---|
|-0-0-0-0-0-0-0---|--------------2-|



~: vibrato
remember.. 3x means to play it 4 times!

Аккорды Cky - Flesh Into Gear для гитары и укулеле

Какой бой?
Помогите начинающим выбрать бой для этой песни
Выберите бой и нажмите кнопку Голосовать
Проголосовали 0 человека

Еще песни

UKULA

Темная версия

По все вопросам [email protected]

Шрифт

|
+

Дизайн