︿

Never Met A Girl Like You Before — Iggy Pop

Укулеле
Гитара

Бой

Помогите выбрать бой

Аккорды

						 
-8--11--13--15--18--15--13--11--8-|-8--11--13--15--18-15-13-11-8|-8--11--13---|
----------------------------------|-----------------------------|-------------|
----------------------------------|-----------------------------|-------------|
----------------------------------|-----------------------------|-------------|
----------------------------------|-----------------------------|-------------|
----------------------------------|-----------------------------|-------------|

-15--18--15--13--11--8|-8--11--13--15--11--8-8|-------------------------------|
----------------------|-----------------------|-------------------------------|
----------------------|-----------------------|-------------------------------|
----------------------|-----------------------|-------------------------------|
----------------------|-----------------------|-------------------------------|
----------------------|-----------------------|-------------------------------|
Bell Parts at beginning, shown above.

-----------------------|--|---------------------------------------------------|
-----------------------|--|---------------------------------------------------|
-----------------------|x3|---------------------------------------------------|
-10-10-8-8---------8---|--|-10-10-8-8-----------------------------------------|
-----------11-10-8---10|--|-----------11-10-8---------------------------------|
-----------------------|--|-------------------6-8-----------------------------|
The Melody. The second melody (played once) 
is also that funky whammy

------------------------------------------------------------------------------|
------------------------------------------------------------------------------|
------------------------------------------------------------------------------|
------------------------------------------------------------------------------|
------------------------------------------------------------------------------|
------------------------------------------------------------------------------|
phrase he plays after each line.

-8-8-11--13--11--8-8----------------------------------------------------------|
------------------------------------------------------------------------------|
------------------------------------------------------------------------------|
------------------------------------------------------------------------------|
------------------------------------------------------------------------------|
------------------------------------------------------------------------------|
Bell part at end of verse.

----------------------------------|-------------------------------------------|
------------------------------11-8|-------------------------------------------|
----8-10-10b12r10-8---------8-----|----8-10-10b12r10-8---------8b-------------|
-10-----------------10v--10-------|-10-----------------10v--10----8-10v-------|
----------------------------------|-------------------------------------------|
----------------------------------|-------------------------------------------|

-----------8v--8-11v--13v|----------------------------------------------------|
--------11---------------|----------------------------------------------------|
----8v-------------------|----8v--10p8-10b11b12r10p8----8b-----------8--------|
-10----------------------|-10------------------------10----10-8----8----8-10--|
-------------------------|--------------------------------------10------------|
-------------------------|----------------------------------------------------|

------------------------------------------------------------------------------|
------------------------------------------------------------------------------|
-8v---------------------------------------------------------------------------|
------------------------------------------------------------------------------|
------------------------------------------------------------------------------|
------------------------------------------------------------------------------|
Here's the first guitar.

------------------|---|-------------------------------------------------------|
-8----------------|---|-8------------8----------------------------------------|
----10-8-----8--10|-x3|----10-8----8------------------------------------------|
---------10-------|---|---------10-----8-10-----------------------------------|
------------------|---|-------------------------------------------------------|
------------------|---|-------------------------------------------------------|
Another bell part. This is over "This old town..." at about 2:30.

--13--15-13-18-----13--18-15--------------------------------------------------|
------------------------------------------------------------------------------|
------------------------------------------------------------------------------|
------------------------------------------------------------------------------|
------------------------------------------------------------------------------|
------------------------------------------------------------------------------|
Bell part: "and now you've come along"

------------------------------------------------------------------------------|
------------------------------------------------------------------------------|
--10b11-------10b12-----------------------------------------------------------|
------------------------------------------------------------------------------|
------------------------------------------------------------------------------|
------------------------------------------------------------------------------|
Some slow bends over the above bell part.

-----------------------------------------|------------------------------------|
-------------------8v--------------------|------------------11v---------------|
------8-8-----8-10---------8-8-----8-8---|-----8-8-----8-10---------8-8----8--|
--/10-----/10----------/10-----/10-----8v|-/10-----/10-----------/10----10----|
-----------------------------------------|------------------------------------|
-----------------------------------------|------------------------------------|
The beginning of the finale.

--------------------------------------|---------------------------------------|
--------------------------------------|-1/8vv--1/9vv--1/11vv------------------|
-10-8-10b12r10p8-10b12r10p8-10b12r10p8|---------------------------------------|
--------------------------------------|---------------------------------------|
--------------------------------------|---------------------------------------|
--------------------------------------|---------------------------------------|

-8/15vv8--8/15vv8--8/16vv8--8/18vv8--8/16vv8--8/15vv8--8/16vv8----------------|
------------------------------------------------------------------------------|
------------------------------------------------------------------------------|
------------------------------------------------------------------------------|
------------------------------------------------------------------------------|
------------------------------------------------------------------------------|

-8/18vvvvvvv8-|---------------8/30vvvvv/8-----------------------------|
--------------|-1/8--1/9----------------------------------------------|
--------------|-------------------------------------------------------|
--------------|-------------------------------------------------------|
--------------|-------------------------------------------------------|
--------------|-------------------------------------------------------|

Аккорды Iggy Pop - Never Met A Girl Like You Before для гитары и укулеле

Какой бой?
Помогите начинающим выбрать бой для этой песни
Выберите бой и нажмите кнопку Голосовать
Проголосовали 0 человека

Еще песни

UKULA

Темная версия

По все вопросам em64ru@yandex.ru

Шрифт

|
+

Дизайн