Песня

Инструмент

Сторисы

Бой

Аккорды

Тональность

				
B7 B6 Gsus2
E|-----|-----|---
B|-----|-----|---
G|---2-|---1-|-2-
D|-4---|-4---|---
A|-2-2-|-2-2-|-0-
D|-----|-----|-5-

Вступление:
G5 - F#5 - B5 - A5 - E5 - F#5 - B5 - A5 - G5 - F#5

B7 B6
Мой ангел О.К.
B7
Порхает крылья наружу
B6
Зачем-то я ему нужен
B7 B6
Следит в глазок
Gsus2
И в темноте светит светом
На всё приходит ответом
D
А этим летом улетел амиго и выпал снег
C#
Но мне казалось он сказал - я мигом, I`ll be back

Припев:
G5 F#5
Летит моя душа
B5 A5
На красный свет, на чёрный день
E5 F#5
Солнце - белый шар
B5 A5
Закрыло мне от крыльев тень
G5 F#5
Эй ну как ты мог
Мой Ангел О.К.

Мой Ангел О.К.
Cтоит за правым плечом
И как будто бы не причём он
Рот на замок,
А если кликну три раза
Он проявляется сразу
Но снова фаза когда манят звёзды и я молюсь -
Мне не казалось и сказал мой крёстный - я вернусь

Серафим - шестикрылый гид,
Ангел-предохранитель - мой сателлит
Ангел-путеводитель, ангел - DJ,
Ангел - окей, ангел-огнетушитель... НО
Смотритель - недосмотрел
Любитель любил, взял улетел в астрал
Пропал сигнал где-то в звёздах
Я звал, но было поздно и я тебя потерял

Соло:
4 раза
E|-----------------------------
B|-----------------------------
G|-----------------------------
D|-----------------------------
A|-----------------------------
D|-9-12-9-11-12-9-9-12-9-11-12-

...и после это же на 2 октавы выше еще 4 раза, то есть:

E|----------------------------------
B|-12-15-12-14-15-12-12-15-12-14-15-
G|----------------------------------
D|----------------------------------
A|----------------------------------
D|----------------------------------

Ход в последнем припеве (партия 2-й гитары):

E|---------------17--------
B|-14-17-14-15-14-17-14-15-
G|-------------------------
D|-------------------------
A|-------------------------
D|-------------------------
Какой бой?
Помогите начинающим выбрать бой для этой песни
Выберите бой и нажмите кнопку Голосовать
Проголосова 1 челове

Еще песни

Песни Новое Избранное Аккорды Настроить