Песня

Инструмент

Сторисы

Бой

Аккорды

Тональность

				
                
                
Проигрыш и куплеты:
E--7------7-------7------7----------5------5------5------5-----
B----0-------0------0-------0---------0------0------0------0---
G------0-------0------0-------0---------5------5------5------5-
D--5----------------------------------0------------------------

E--3------3-------3------3----------3------3-------2------3-----
B----0-------0------0-------0---------0------0-------0------0---
G------5-------5------5-------5---------0------0-------2------2-
D--5----------------------------------2--------------0----------

Он вчера мне звонил
С той, другой стороны,
Откуда приходят во сне.
Сказал, там светил луна,
До самого дна,
Золотая луна на пол неба.

Em F# B
Он передавал привет,
B7 Em
Сказал что времени нет,
C Am
И горечи нет,
B7 Em
Он всё ещё любит тебя,
F# B
Передавал привет,
B7 Em
Сказал, что времени нет,
C Am
И горечи нет,
B7
он всё ещё ждёт тебя там, где...

Поднимается дым
От сиренево-синей воды,
И бояться больше не надо.
Лишь, воздух хватает ртом
Тот, кто не был готов
К радости водопадов.

Он передавал привет,
Сказал что времени нет,
И горечи нет,
Он всё ещё любит тебя,
Передавал привет,
Сказал, что времени нет,
И горечи нет,
Он всё ещё ждёт тебя там, где...
Какой бой?
Помогите начинающим выбрать бой для этой песни
Выберите бой и нажмите кнопку Голосовать
Проголосовал 2 человек

Еще песни

Песни Новое Избранное Аккорды Настроить