︿

Псальма — KHAYAT

Укулеле
Гитара

Бой

Помогите выбрать бой

Аккорды

Тональность



						Am  x4

1:----12~---10~-------12~---10~----
2:--12~---12~--10~--12~-------10~--

[Куплет 1]:   Am   G        C5  Bm7
Ой на горі, на Асфатовій,
    Dm  Am     F   E7
Там літали два голуби.
   Am  G       C5  Bm7
Не голуби - то Янголи,
   Dm  Am      F   E7
То Янголи - Хранителі.

[Приспів]:
   C5   G     C5  F
Чи ви душі скорилися?
    Dm     C5    B7  E7
І з вітром розлетілися?
   C5    G      C5  F
Як ви, душі, спасалися,
   Dm   C5    B7   E
Як до небес сподалися?

[Програш]:Am  x4

1:----12~---10~-------12~---10~----
2:--12~---12~--10~--12~-------10~--

[Куплет 2]:  Am    G      C5  F
Жили, жили - боролися!
   Dm     C5   B7   E7
Віддавши, що лишалося.
  Am     G    C5  F
І правди не цуралися,
  Dm   C5     F   E7
І до небес дісталися.

[Соло]:Am G C5 Bm7
Dm Am F E7

1:-------------------------12/(~13)-10~--
2:--6/8/-10--12/10/-8-8--10--------------

1:------10~---13-12p10h12-------------------------
2:-10-12-----------------13~--10-12-13~-12-10-9~--

[Кода]:   Am      G   C5   F
Скажіть же янголи синів,
      Dm    C5   E7  Am6
Чом склали крила голубів?
                        
					


Аккорды KHAYAT - Псальма для гитары и укулеле

Какой бой?
Помогите начинающим выбрать бой для этой песни
Выберите бой и нажмите кнопку Голосовать
Проголосовали 0 человека

Еще песни

UKULA

Темная версия

Шрифт

|
+

Дизайн