Grim Skunk - Dont Hide - аккорды на укулеле

СТРАНИЦА ПЕСНИ

АЛФАВИТ
Х
			
			 
-----------------------------------
don`t hide  / Grimskunk
-----------------------------------

Intro:
G----------------------------------------|
D----------------------------------------|
A---2--2------------5--5-----------------|
E-----------3--3--------------5--5-------|

Don't hide 1-2-3-4

G----------|
D------7---|
A------0---|
E------5---|

1er RIFF
G|--------------------------|---------------------------|
D|*-------------------------|--------------------------*|
A|*---2--2--2---------0-----|--2--2--2------5--4-------*|
E|----------------3---------|---------------------------|

REFRAIN:
G|----------------------------------------------|
D|*--------------------------------------------*|
A|*---2----2-------------5----5----0----0------*|
E|-------------3-----3--------------------------|

   |--------------------------------------|
   |--------------------------------------|
   |---2---2--------------5----5----------|
   |------------3-----3------------5-5-5--|


2e RIFF

G|------------------------------------------------|
D|*-----------------------------------------------|
A|*-2--2--2-----2--2--2---------------0--0--0-----|
E|--------------------------3--3--3---------------|

   |---------------------------------------------|
   |---------------------------------------------|
   |---2--2--2----2--2--2------5-5-5--4-4-4-----*|
   |---------------------------------------------|

1er RIFF
REFRAIN



Какой бой?
Помогите начинающим выбрать бой для этой песни
Выберите бой и нажмите кнопку Голосовать
Проголосовали 0 человека

ЕЩЕ ПЕСНИ

UKULA.RU
Песни Новое Избранное Аккорды Настроить