Песня

Инструмент

Сторисы

Аккорды

Тональность

				
                
                
Вступление:
e---------7----7----7--------2----2----2-------3----3---3-----------3------3-----3-
b----------------------------------------------------------------------------------
g------7----7----7--------2-----2----2-------4---4---4----------4-------4-----4----
d--5--------------------0-------------------2--------------------------------------
a-------------------------------------------------------------------3--------------
e----------------------------------------------------------------------------------

e---------7----7----7--------2----2----2-------3----3---3----------3—3—3--3-
b---------------------------------------------------------------------------
g------7----7----7--------2-----2----2-------4---4---4----------------------
d--5--------------------0-------------------2-------------------------------
a-------------------------------------------------------------------3-------
e---------------------------------------------------------------------------

потом то же самое, только боем: 
бас вниз бас вверх вниз баз вверх
Куплет:
| Dm | C#m7 | A7 x2|
| Dm | C#m7 | A7 x2|

С «расставались мы…":
| B+7 | Gm7 | A7 | Dm |
| B+7 | Gm7 | A7 x2|

Припев:
| G | D | Em | C |
| Am x2 | C | D |
| G | D | Em | C |
| Am x2 | C | D |
Какой бой?
Помогите начинающим выбрать бой для этой песни
Выберите бой и нажмите кнопку Голосовать
Проголосовали 0 человека

Еще песни

Песни Новое Избранное Аккорды Настроить