︿

People Are Strange — Doors

Укулеле
Гитара

Бой

Помогите выбрать бой

Аккорды

Тональность



						 
           Em                           A7
--------|-----------------------------|--------------------------------|
--------|-----------------------------|--------------------------------|
--------|-------------0---------------|-------------2--0---------------|
--------|---------2-----------2-------|------2---------------2---------|
2--0----|-----2------------------2--1-|-0-------------------------2--1-|
------3-|--0--------------------------|--------------------------------|
           People are strange           when you're a  stran-ger

A7                            B              Em
----------------------------|------------------------------|
----------------------------|------------------------------|
------2----------0----------|------------------------------|
---2-------2----------------|-------------1----------------|
0----------2--------0--1--2-|------2--------------2--0-----|
----------------------------|-2--------------0----------3--|
faces look ug-ly              when you're al-one.
                    |--3--|

Em                            A7          
----------------------------|--------------------------------|
----------------------------|--------------------------------|
------------0---------------|-------------2---0--------------|
-------2------------2-------|------2----------------2--------|
---2-------------------2--1-|-0------------------------2--1--|
0---------------------------|--------------------------------|
Wo-men seem wick-ed           When you're un-wanted

A7                               B               Em
------------------------------|-------------------------------------|
------------------------------|-------------------------------------|
--------2---------------------|------------------------0-----0------|
---2---------2-----2----------|----------1----------------2---------|
0---------------------0--1--2-|-----2-------------------------------|
----------------0-------------|--2--------------0-------------------|
Streets look un-   even             When you're down.   
                      |--3--|

Chorus:
            B7
When you're strange 
G                     B7
Faces come out of the rain
B7
When you're strange 
G                     B7
No one remembers your name 
B7
When you're strange 
B7
When you're strange
B7
When you're strange


Аккорды Doors - People Are Strange для гитары и укулеле

Какой бой?
Помогите начинающим выбрать бой для этой песни
Выберите бой и нажмите кнопку Голосовать
Проголосовали 0 человека

Еще песни

UKULA

Темная версия

Шрифт

|
+

Дизайн