︿

Deep Elem Blues — Grateful Dead

Укулеле
Гитара

Бой

Помогите выбрать бой

Аккорды

Тональность

						 
E---------------------------|---------------------------| 
B---------------------------|---------------------------| 
G---------------------------|---------------------------| 
D----------2-2-2-2-0--------|----------2-2-2-2-0--------| 
A--------2-----------4-2----|--------2-----------4-2----| 
E--0-3-4--------------------|--0-3h4--------------------| 
 
E---------------------------|-------------------------------------------| 
B---------------------------|-------------------------------------------| 
G---------------------------|-------------------------------------------| 
D----------2-2-0------------|----------------2-2-4^5-2-0-2--------------| 
A--------2-------4-2--------|----------0-0-4---------------4-2----------| 
E--0-3h4--------------------|--0-2-3-4-------------------------4-3-0----| 
 
E---------------------------------------| 
B---------------------------------------| 
G---------------------------------------| 
D------------4-1------------------------| 
A------0-1-2-----2-5^6--4--2------2-----| 
E--2^4------------------------2^4---0---| 
 
 E
If you go down to Deep Elem 
 E
Put your money in your shoe 
 E
The women in Deep Elem 
 E         E7
Got them  Deep Elem blues 
 
Chorus: 
 A7                                          E
Oh sweet mama your daddy's got them Deep Elem blues 
 B                                          E
Oh sweet mama your daddy got them Deep Elem blues 
 
Once i had a girlfriend 
She meant the world to me 
Then she went down to Deep Elem 
Now she ain't what she used to be 
 
Chorus 
 
Once i knew a preacher 
Preached the bible through and through 
He went down to Deep Elem 
Now his preachin' days are through 
 
Chorus 
 
When you go down to Deep Elem 
To have a little fun 
Get your ten dollars ready 
When the policeman comes 
 
Chorus 
 
When you go down to Deep Elem 
Keep your money in your pants 
Cause the woman in Deep Elem 
Don't give a man a chance 
 
Chorus

Аккорды Grateful Dead - Deep Elem Blues для гитары и укулеле

Какой бой?
Помогите начинающим выбрать бой для этой песни
Выберите бой и нажмите кнопку Голосовать
Проголосовали 0 человека

Еще песни

UKULA

Темная версия

Шрифт

|
+

Дизайн